Him - Your Sweet 666 Chords & Tabs

 

Your Sweet 666 Chords & Tabs

Him Chords & Tabs

Version: 3 Type: Bass Tab 0 ratings
1 star 2 stars 3 stars 4 stars 5 stars
comments

Your Sweet 666 Bass Tab

Intro

G--------|
D--------|
A-5-4-0--|
E--------|

G-----------------------------------------------------------|
D------------5-5-5-5-5-5-4-4-4-4------------5-5-5-5-4-4-4-4-|
A--2-2-2-2-2---------------------2-2-2-2-2------------------|
E-----------------------------------------------------------| X2

G----------------|
D----------------|
A-2-2-2-2-2-0----|
E-------------3--|

Verse

G----------------------------------------|
D----------------------------------------|
A---------------5-5-5-5-5-5--------------|
E-3-3-3-3-3-3-3--------------2-2-2-2-2-2-| repeat through verse

occaisionally this little bit is played

G----------|
D----------|
A-5-4-0----|
E-------3--|


Chorus
[ Tab from: http://www.guitartabs.cc/tabs/h/him/your_sweet_666_btab_ver_3.html ]
G-------------------------------------------|
D-------------------------------------------|
A-2-2-2-2-2-2-2-2-5-5-5---------------------|
E-----------------------5-5-5-5-3-3-3-3-----| play through chorus

G----------|
D----------|
A-5-4-0----|
E-------3--| this part is sometimes played again

intro again before next verse and chorus

intro again then pause

last chorus is played slightly higher

G---------------------------------------------------------------------|
D---------------------------------------------------------------------|
A-4-4-4-4-4-4-4-7-7-7-7-7-7-------------------------------------------|
E---------------------------7-7-7-7-7-5-5-5-5-7-7-7-7-7---------------| repeat xlots

finish with

G-------------------------------|
D-------------------------------|
A-------------------------------|
E-7-7-7-7-7-5-5-5-5-7-7-7-7-7---| a few times then finally

G----------|
D----------|
A-8-7-2-4--|
E----------|
Comments