Him - Your Sweet 666 Chords & Tabs

 

Your Sweet 666 Chords & Tabs

Him Chords & Tabs

Version: 2 Type: Bass Tab 0 ratings
1 star 2 stars 3 stars 4 stars 5 stars
comments

Your Sweet 666 Bass Tab

ok, Mige is a tricky guy. for most songs he tunes his E string down to B, but
this is much more easily executed by simply using a 5 string bass. so im tabbing
this song for a 5 string bass, but you can tune your E down to B (2 and a half
steps down) if you'd like
intro
g-----|------------------------|-------
d-----|------------------------|-------
a5-4-0|------------------------|-222220
e-----|---------3-3-3-3-2-2-2-2|-------
b-----|-0-0-0-0----------------|-------

"there are things you should know..."

g--------------------------------------------------
d--------------------------------------------------
a------555555------------------555555-----------540
e333333------222222222222333333-------333333333----
b--------------------------------------------------

g-------------------------------------
d-------------------------------------
a------555555-------------------555555
e333333-------222222222222333333------
b-------------------------------------

g---------
d---------
a---------
e22-2-22-2
b---------

chorus- played twice

g------------------------------------------------
d------------------------------------------------
a---------------------------------------------540
e------------------------555555-33-3-33-3-5-5----
b000000000000000033333333------------------------
intro riff
g------------------------|-------
d------------------------|-------
a------------------------|-222220
e---------3-3-3-3-2-2-2-2|-------
b-0-0-0-0----------------|-------
[ Tab from: http://www.guitartabs.cc/tabs/h/him/your_sweet_666_btab_ver_2.html ]
g--------------------------------------------------
d--------------------------------------------------
a------555555------------------555555-----------540
e333333------222222222222333333-------333333333----
b--------------------------------------------------

g-------------------------------------
d-------------------------------------
a------555555-------------------555555
e333333-------222222222222333333------
b-------------------------------------

g---------
d---------
a---------
e22-2-22-2
b---------

chorus- played twice

g------------------------------------------------
d------------------------------------------------
a---------------------------------------------540
e------------------------555555-33-3-33-3-5-5----
b000000000000000033333333------------------------

little bridge part with nothing but voice and drums

then this, which is the chorus played a whole step higher, for those newbies who
don't know what the HELL that is, i'll tab it out
g-------------------------------------------------------------
d-------------------------------------------------------------
a---------------------------------------------------------76--
e22-2-22-2--------------------------777777755-5-55-5-7-7-----7
b-----------222222222222222255555555--------------------------

basically that twice, then this a bunch until the end

g-----------------
d-----------------
a-----------------
e55-5-77-7-55-7-77
b-----------------

 there you go, enjoy.
questions or comments? villevalo07@hotmail.com
Comments