Him - You Are The One Chords & Tabs

 

You Are The One Chords & Tabs

Him Chords & Tabs

Version: 2 Type: Tab 0 ratings
1 star 2 stars 3 stars 4 stars 5 stars
comments

You Are The One Tab

HIM-You are the one
Deep Shadows and Brilliant Highlights


intro- no distortion
e---------------------------------------------------------------------------------|
B---------------------------------------------------------------------------------|
G--------------9--99-7-77---------------------------------------------------------|
D-----0-2p0----9--99-7-77----0-2p0----5--55-7-77----------------------------------|
A--0h2-----2-7-7--77-5-55-0h2-----2---5--55-7-77----------------------------------|
E-----------------------------------3-3--33-5-55----------------------------------|


heavy distortion
e---------------------------------------------------------------------------------|
B---------------------------------------------------------------------------------|
G------------9-9--9-7--77---------------------------------------------------------|
D-----0-2p0--9-9--9-7--77----0-2p0--5-5--9-7--77----0-2p0-------------------------|
A--0h2-----2-7-7--7-5--75-0h2-----2-5-5--9-7--77-0h2-----2------------------------|
E-----------------------------------3-3--7-5--55----------------------------------|


heavy strum
e---------------------------------------------------------------------------------|
B---------------------------------------------------------------------------------|
G---9-9--9-7---7------------------------9-9--9-7---7------------------------------|
D---9-9--9-7---7------5-5--9-7---7------9-9--9-7---7------5-5--9-7---7------------|
A---7-7--7-5---5------5-5--9-7---7------7-7--7-5---5------5-5--9-7---7------------|
E---------------------3-3--7-5---5------------------------3-3--7-5---5------------|

e---------------------------------------------------------------------------------|
B---------------------------------------------------------------------------------|
G------------9-9--9-7--77----------------------------------9-9--9-7--77-----------|
D-----0-2p0--9-9--9-7--77----0-2p0--5-5--9-7--77----0-2p0--9-9--9-7--77----0-2p0--|
A--0h2-----2-7-7--7-5--55-0h2-----2-5-5--9-7--77-0h2-----2-7-7--7-5--55-0h2-----2-|
E-----------------------------------3-3--7-5--55----------------------------------|

e---------------------------------------------------------------------------------|
B---------------------------------------------------------------------------------|
G---------------------------------------------------------------------------------|
D--5-5--9-7--77----0-2p0----------------------------------------------------------|
A--5-5--9-7--77-0h2-----2---------------------------------------------------------|
E--3-3--7-5--55-------------------------------------------------------------------|


chorus- x3 sorry i dont know the strum pattern but those are the power chords
e---------------------------------------------------------------------------------|
B------------------------------------ after 3rd time play ------------------------|
G--9-----------7--------------------------------------------9-------7-------------|
D--9---7---2---7------0-2p0---------------------------------9---7---7-------------|
A--7---7---2---5---0h2-----2--------------------------------7---7---5-------------|
E------5---0----------------------------------------------------5-----------------|

e---------------------------------------------------------------------------------|
B---------------------------------------------------------------------------------|
G--9-9--9-7--77-------------------------------------------------------------------|
D--9-9--9-7--77----0-2p0--5-5--9-7--77----0-2p0-----------------------------------|
A--7-7--7-5--75-0h2-----2-5-5--9-7--77-0h2-----2----------------------------------|
E-------------------------3-3--7-5--55--------------------------------------------|

[ Tab from: http://www.guitartabs.cc/tabs/h/him/you_are_the_one_tab_ver_2.html ]
heavy strum
e---------------------------------------------------------------------------------|
B---------------------------------------------------------------------------------|
G---9-9--9-7---7------------------------9-9--9-7---7------------------------------|
D---9-9--9-7---7------5-5--9-7---7------9-9--9-7---7------5-5--9-7---7------------|
A---7-7--7-5---5------5-5--9-7---7------7-7--7-5---5------5-5--9-7---7------------|
E---------------------3-3--7-5---5------------------------3-3--7-5---5------------|

e---------------------------------------------------------------------------------|
B---------------------------------------------------------------------------------|
G------------9-9--9-7--77----------------------------------9-9--9-7--77-----------|
D-----0-2p0--9-9--9-7--77----0-2p0--5-5--9-7--77----0-2p0--9-9--9-7--77----0-2p0--|
A--0h2-----2-7-7--7-5--55-0h2-----2-5-5--9-7--77-0h2-----2-7-7--7-5--55-0h2-----2-|
E-----------------------------------3-3--7-5--55----------------------------------|

e---------------------------------------------------------------------------------|
B---------------------------------------------------------------------------------|
G---------------------------------------------------------------------------------|
D--5-5--9-7--77----0-2p0----------------------------------------------------------|
A--5-5--9-7--77-0h2-----2---------------------------------------------------------|
E--3-3--7-5--55-------------------------------------------------------------------|


chorus- x3
e---------------------------------------------------------------------------------|
B------------------------------------ after 3rd time start playing heavy strum ---|
G--9-----------7--------------------- over solo ----------------------------------|
D--9---7---2---7------0-2p0-------------------------------------------------------|
A--7---7---2---5---0h2-----2------------------------------------------------------|
E------5---0----------------------------------------------------------------------|


solo- uses whammy bar for vibrato effect
e---------------------------------------------------------------------------------|
B----------------------------------------------------------------8----------------|
G--979~--979~--979~--7-9--12-11-9-7--979~--979~--979~--------7-9-7-9-7-9----------|
D--979~--979~--979~--7-9--12-11-9-7--979~--979~--979~----7-9-7-9---9-7-9----------|
A--------------------------------------------------------7-9----------------------|
E---------------------------------------------------------------------------------|


chorus- x3
e---------------------------------------------------------------------------------|
B------------------------------------ after 3rd time play ------------------------|
G--9-----------7--------------------------------------------9-------7-------------|
D--9---7---2---7--------------------------------------------9---7---7-------------|
A--7---7---2---5--------------------------------------------7---7---5-------------|
E------5---0----------------------------------------------------5-----------------|


outro- no distortion
e----------------------------------------------------------------------------------|
B----------------------------------------------------------------------------------|
G----9--9-7--77------------------------------------9--9-7--77----------------------|
D----9--9-7--77----0-2p0----5--9-7--77----0-2p0----9--9-7--77----0-2p0-------------|
A--7-7--7-5--55-0h2-----2---5--9-7--77-0h2-----2-7-7--7-5--55-0h2-----2------------|
E-------------------------3-3--7-5--55---------------------------------------------|


he starts to slow down here
e--------------------------0--------------------------------------------------------|
B--------------------------0--------------------------------------------------------|
G--------------------------0--------------------------------------------------------|
D----5--9-7--77----0-2p0---2--------------------------------------------------------|
A----5--9-7--77-0h2-----2--2--------------------------------------------------------|
E--3-3--7-5--55---------------------------------------------------------------------|


well thats all of it except for the fills during the third chorus, im working on those.


heartagram
Comments