Him - Wings Of A Butterfly Chords & Tabs

 

Wings Of A Butterfly Chords & Tabs

Him Chords & Tabs

Version: 5 Type: Tab 0 ratings
1 star 2 stars 3 stars 4 stars 5 stars
comments

Wings Of A Butterfly Tab

   
-----------------------------------------------------------------------------
			     WINGS OF A BUTTERFLY - HIM
-----------------------------------------------------------------------------Tabbed by: James Hensley
Email: neverwakeup@msn.com

Great new song from him.
Tuning: Drop D

InTrO
e|---------------------------------------------------------------------------|
B|---6----6---6-6h7p6\4----4---4---4----4h6p4\2----2---2--1------------------|
G|-----3----3----------------1----1---1--------------------------------------|
D|----------------------------------------------2-----4----------------------|
A|---------------------------------------------------------------------------|
D|---------------------------------------------------------------------------|
[ Tab from: http://www.guitartabs.cc/tabs/h/him/wings_of_a_butterfly_tab_ver_5.html ]
VeRsE
e|---------------------------------------------------------------|------------|
B|---------------------------------------------------------------|------------|
G|---------------------------------------------------------------|------------|
D|----6-8-8--8-8--6-6--6-6--4-4--4-6--8-8--8-8--6-6--6-6--4-4--4-|-6~~~-------|
A|----6-8-8--8-8--6-6--6-6--4-4--4-6--8-8--8-8--6-6--6-6--4-4--4-|-6~~~-------|
D|----6-8-8--8-8--6-6--6-6--4-4--4-6--8-8--8-8--6-6--6-6--4-4--4-|-6~~~-------|
    p.m ----------------------------------------------------------------------|

ChOrUs
e|---------------------------------------------------------------------------|
B|---------------------------------------------------------------------------|
G|---------------------------------------------------------------------------|
D|------8888-00-6666-65444-6-------------------------------------------------|
A|------8888-00-6666-65444-6-------------------------------------------------|
D|------8888-00-6666-65444-6-------------------------------------------------|


InTeRlUdE
e|---------------------------------------------------------------------------|
B|---------------------------------------------------------------------------|
G|---------------------------------------------------------------------------|
D|---------------------------------3--6--5--3--1-1-1-3--6--1~~~--------------|
A|---------------------------------3--6--5--3--1-0-1-3--6--1~~~--------------|
D|---3~6-5-3--1-1-0-1--3~~-6-1~~---3--6--5--3--1-1-1-3--6--1~~~--------------|

~~~SoNg StRuCtUrE~~~
Intro
Verse
Chorus
Intro
Verse
Chorus
intro
interlude
chorus
intro


| /  slide up
| \  slide down
| h  hammer-on
| p  pull-off
| ~  vibrato
| +  harmonic
| x  Mute note
=============================================================================
Comments