Him - Wings Of A Butterfly Chords & Tabs

 

Wings Of A Butterfly Chords & Tabs

Him Chords & Tabs

Version: 4 Type: Tab 0 ratings
1 star 2 stars 3 stars 4 stars 5 stars
comments

Wings Of A Butterfly Tab

   
-------------------------------------------------------------------------------
			     WINGS OF A BUTTERFLY - HIM
-------------------------------------------------------------------------------
Tabbed by: FUBAR
Email:

Tuning: DADGBE

Intro
e|-----------------------------------------------------------------------------|
B|---6----6---6-6h7p6\4----4---4---4----4h6p4\2----2---2--1--------------------|
G|-----------------------------------------------------------------------------|
D|-----8----8------------6----6---6--6------------4---4------------------------|
A|-----------------------------------------------------------------------------|
D|-----------------------------------------------------------------------------|

Verse
e|-----------------------------------------------------------------------------|
B|-----------------------------------------------------------------------------|
G|-----------------------------------------------------------------------------|
D|-----------------------------------------------------------------6-----------|
A|-----------------------------------------------------------------6-----------|
D|------8-8--8-8--6-6--6-6--4-4--4-6--8-8--8-8--6-6--6-6--4-4--4-6-------------|
    p.m -----------------------------------------------------------------------|

[ Tab from: http://www.guitartabs.cc/tabs/h/him/wings_of_a_butterfly_tab_ver_4.html ]
Chorus
e|------------------------------------------------------------------------------|
B|------------------------------------------------------------------------------|
G|------------------------------------------------------------------------------|
D|------8--6-4-6--8-6-4-6-------------------------------------------------------|
A|------8--6-4-6--8-6-4-6-------------------------------------------------------|
D|------8--6-4-6--8-6-4-6-------------------------------------------------------|


Interlude
e|------------------------------------------------------------------------------|
B|------------------------------------------------------------------------------|
G|------------------------------------------------------------------------------|
D|------4--7-6-4-2----2---------------------------------------------------------|
A|------4--7-6-4-2--4-2-4-------------------------------------------------------|
D|------4-----------4---4-------------------------------------------------------|

The song has a simple structure
Intro
Verse
Chorus
Intro
Verse
Chorus
intro
interlude
chorus
intro

The interlude is a bit more complicated than that and does have a rising chromatic scale 
the end which i haven't tabbed, but this is enough to get the song sounding right as
of the rest of it is made up with keyboard harmonies, will be interesting to see how
it is done live because on the recording i count three guitars in the interlude!

| /  slide up
| \  slide down
| h  hammer-on
| p  pull-off
| ~  vibrato
| +  harmonic
| x  Mute note
===============================================================================
Comments