Him - Wings Of A Butterfly Chords & Tabs

 

Wings Of A Butterfly Chords & Tabs

Him Chords & Tabs

Version: 3 Type: Tab 0 ratings
1 star 2 stars 3 stars 4 stars 5 stars
comments

Wings Of A Butterfly Tab

Tabbed by:cadaman2005
Email:mbuk2004kona@aol.com

Tuning: drop d
[ Tab from: http://www.guitartabs.cc/tabs/h/him/wings_of_a_butterfly_tab_ver_3.html ]
e|--------------------------------------------------------------------------|
B|---6---6---6--4h6p4--2--4---4---4---4------4---4---4---2h4p2--1--2--------|
G|-----4---4----------------1---1---1---1------1---1------------------------|
D|--------------------------------------------------------------------------|
A|--------------------------------------------------------------------------|
d|--------------------------------------------------------------------------|

e|-------------------------------------------------------------------------|
B|-------------------------------------------------------------------------|
G|-------------------------------------------------------------------------|
D|--9--8-------------------------------------------------------------------|
A|--9--8-------------------------------------------------------------------|
d|--9--8-------------------------------------------------------------------|
Comments