Him - Wicked Game Chords & Tabs

 

Wicked Game Chords & Tabs

Him Chords & Tabs

Version: 5 Type: Tab 0 ratings
1 star 2 stars 3 stars 4 stars 5 stars
comments

Wicked Game Tab

Artist: HIM
Album: Greatest Love Songs Vol. 666
Song: Wicked Game

Standard Tuning(EBGDAE)

PM = Palm Mute
\ = Slide Up
/ = Slide Down
~ = Let Ring

Intro:
|-------------------------------------------------------------------|
|--------------------------------------------------------1----------|
|-4--4-4-4-4-4-4-4--2--2-2-2-2-2-2-2------------------2--2----------|
|-4--4-4-4-4-4-4-4--2--2-2-2-2-2-2-2--2--2-2-2-2--2\4--4--2-2-2-2-2-|
|-2--2-2-2-2-2-2-2--0--0-0-0-0-0-0-0--2--2-2-2-2----------2-2-2-2-2-|
|-------------------------------------0--0-0-0-0----------0-0-0-0-0-|x2
     PM-----------|    |------------|    |------|        |-------|

Verse:
|-----------------------------------------------------------------|
|-----------------------------------------------------------------|
|-----------------------------------------------------------------|
|-4-4-4-4-4-4-4-4-2-2-2-2-2-2-2-2---------------------------------|
|-2-2-2-2-2-2-2-2-0-0-0-0-0-0-0-0-2-2-2-2-2-2-2-2-2-2-2-2-2-2-2-2-|
|---------------------------------0-0-0-0-0-0-0-0-0-0-0-0-0-0-0-0-|
  PM--------------------------------------------------------------|
|-----------------------------------------------------------------|
|---------------------------------------------------1-------------|
|------------------------------------------------2--2-------------|
|-4-4-4-4-4-4-4-4-2-2-2-2-2-2-2-2------------2\4--4--2-2-2-2-2-2--|
|-2-2-2-2-2-2-2-2-0-0-0-0-0-0-0-0-2-2-2-2-2----------2-2-2-2-2-2--|
|---------------------------------0-0-0-0-0----------0-0-0-0-0-0--|
  PM---------------------------------------|         |----------|
[ Tab from: http://www.guitartabs.cc/tabs/h/him/wicked_game_tab_ver_5.html ]
Pre-chorus:
|--------------------------------------------------------------------|
|---------------------------------------------------------1----------|
|-4--4-4-4-4-4-4-4--2--2-2-2-2-2-2-2-------------------2--2----------|
|-4--4-4-4-4-4-4-4--2--2-2-2-2-2-2-2--2--2-2-2-2--2\4--4---2-2-2-2-2-|
|-2--2-2-2-2-2-2-2--0--0-0-0-0-0-0-0--2--2-2-2-2-----------2-2-2-2-2-|
|-------------------------------------0--0-0-0-0-----------0-0-0-0-0-|
     PM----------|     |------------|    |------|          |------|
|-----------------------------------------------------------0---0---|
|-------------------------------------------------------0-0---0---0-|
|---------------------------------------------------1-2-------------|
|-4--4-4-4-4-4-4-4--2--2-2-2-2-2-2-2--2--2-2-2-2--2-----------------|
|-2--2-2-2-2-2-2-2--0--0-0-0-0-0-0-0--2--2-2-2-2--------------------|
|-------------------------------------0--0-0-0-0--------------------|
     PM-----------|    |------------|   |-------|

Chorus:
|---2-----0-------------------------0-------------0---0-------|
|-0---3-0---3-------2-----------------0-------0-0---0---------|
|-------------2-------2---4-2-2-----------1-2-------------1-2-|
|---------------4-2-----4-------4-2-----2---------------2-----|
|-------------------------------------------------------------|
|-------------------------------------------------------------|
|
|---2-----0-------------------------0-------------0---0----|
|-0---3-0---3-------2------------------0-------0-0---0---0-|
|-------------2-------2---4-2-2------------1-2-------------|
|---------------4-2-----4-------4-2------2-----------------|
|----------------------------------------------------------|
|----------------------------------------------------------|
|
|---2-----0-------------------------------0---0---|
|-0---3-0---3---2--0------------------0-0---0---0-|
|-------------2-------2b--1~~~~---1-2-------------|
|-------------------------------2-----------------|
|-------------------------------------------------|
|-------------------------------------------------|

Solo:
|-------------------0-----------------------------0-------------|
|-----------------0---0-------------------------0---0-----------|
|----9~~~~10~~10~-------2---1h2p1-9~~~~10~~10~~-------2---1h2p1-|
|--9----------------------2-----------------------------2-------|
|---------------------------------------------------------------|
|---------------------------------------------------------------|
|
|---2-----0-------------------------0---------|
|-7/--3-0---3---2--0--------------0---0-------|
|-------------2------2b--1~~~-1-2-------2-1-2-|
|---------------------------------------------|
|---------------------------------------------|
|---------------------------------------------|
|
|-2-----0-----------------|
|---3-0---3---2--0--------|
|-----------2-------2---1-|
|-------------------------|
|-------------------------|
|-------------------------|

There you go, thats all the parts, you can figure out where they go and when to play
them. This is the Greatest Love Songs version its grungier sounding if thats the right
word to use, if you haven't heard this version you should download it cause its good
although you could play around with this tab and play the Razorblade version. 

PLEASE RATE!

Thanks!
 
Comments