Him - Wicked Game Chords & Tabs

 

Wicked Game Chords & Tabs

Him Chords & Tabs

Version: 2 Type: Tab 0 ratings
1 star 2 stars 3 stars 4 stars 5 stars
comments

Wicked Game Tab

   
HIM "Wicked Game".
Tabbed by Lily Lazer LilyLazer@uboot.com.
  
HIM
WICKED GAME


The main riff:(intro&verse)

B5 / A5 / E5
(Bm / A / E )

e------------------------------------------------- -----------------
b---.-.-.-.-.-.-.---.-.-.-.-.-.-.----------------- -----------------
g-4-4-4-4-4-4-4-4-2-2-2-2-2-2-2-2---.-.-.-.-----2- --1-.-.-.-.---.-.
D-4-4-4-4-4-4-4-4-2-2-2-2-2-2-2-2-2-2-2-2-2-2/4--- 4-2-2-2-2-2-2-2-2
A-2-2-2-2-2-2-2-2-0-0-0-0-0-0-0-0-2-2-2-2-2------- ----2-2-2-2-2-2-2
E---------------------------------0-0-0-0-0------- ----0-0-0-0-0-0-0
(All of the chords with dots above them are palm-muted)
(Iïm not sure about the tuning. It could be: DGCFAD?)
[ Tab from: http://www.guitartabs.cc/tabs/h/him/wicked_game_tab_ver_2.html ]
CHORUS:
e---2-----0-----2---0------0-----0---0----------------0-----0-----0
b-----3-----3---------2------3---------0----------------0-----0----
g-------4-----4---------2------2---------1------2---------1-----1--
D-4-(let ring)----2----------------2--------2/4---4-2------ --------
A-2-(--------)----0----------------2----------------2--------------
E----------------------------------0----------------0--------------


INTERLUDE:

e---2-----0--------------------0----------------------------
b-----3-----3---3-2h3p2---2------0-------------5-----5------
g-------4-----4-------------1------1-1-1/2-2/4---4-----4----
D-----------------------------------------------------------
A-2---------------------------------------------------------
E-----------------------------------------------------------

SOLO:

e--------------------------------------------
b--------------------------------------------
g---9bu11--11r9----9-------------------------
D-9-------------9----9-6-7---6h7p6--6h7h9----
A--------------------------------------------
E--------------------------------------------


have u got a question?? please mail it LilyLazer@uboot.com

 
:: Ultimate Guitar Archive :: 
http://www.ultimate-guitar.com 

 
Comments