Him - Wicked Game Chords & Tabs

 

Wicked Game Chords & Tabs

Him Chords & Tabs

Version: 1 Type: Tab 0 ratings
1 star 2 stars 3 stars 4 stars 5 stars
comments

Wicked Game Tab

   
Song: Wicked Game (Chirs Issac cover)
Preformed By: HIM
Album: Greatest Love Songs Vol. 666
Tabbed by: yourock87 
Questions comments:(apaleshadeofgray@yahoo.com)

This is my frist tab, and I'm sure its correct.
I tabbed the song for 2 guitars and the solo. Enjoy

Standard tuning:  E A D g b E

. - Palm Mute
* - Artificial Harmonic
/ - slide
b - bend 
r - release bend
/x - pick scrape
~ - vibrato


Main Riff:
Both guitars     


e||-------------------|------------------|-----------------------|---------------||
b||-------------------|------------------|-----------------------|---------------||
g||---4-4-4-4-4-4-4---|--2-2-2-2-2-2-2---|--1-1-1-1-1------2---1-|--1-1-1-1-1-1--||
D||---4-4-4-4-4-4-4---|--2-2-2-2-2-2-2---|--2-2-2-2-2--2/4---4---|--2-2-2-2-2-2--||
A||---2-2-2-2-2-2-2---|--0-0-0-0-0-0-0---|--2-2-2-2-2------------|--2-2-2-2-2-2--||
E||-------------------|------------------|-----------------------|---------------||
PM      . . . . . .        . . . . . .        . . . .              . . .   . .


Verse A:
Both guitars

e||-------------------|------------------|-------------------|-------------------||
b||-------------------|------------------|-------------------|-------------------||
g||.--4-4-4-4-4-4-4---|--2-2-2-2-2-2-2---|--1-1-1-1-1-1-1----|---1-1-1-1-1-1-1--.||
D||.--4-4-4-4-4-4-4---|--2-2-2-2-2-2-2---|--2-2-2-2-2-2-2----|---2-2-2-2-2-2-2--.||
A||---2-2-2-2-2-2-2---|--0-0-0-0-0-0-0---|--2-2-2-2-2-2-2----|---2-2-2-2-2-2-2---||
E||-------------------|------------------|-------------------|-------------------||
PM    . . . . . . .      . . . . . . .      . . . . . . .        . . . . . . .
      World was on fire 


e||-------------------|------------------|----------------------|-------------------||
b||-------------------|------------------|----------------------|-------------------||
g||.--4-4-4-4-4-4-4---|--2-2-2-2-2-2-2---|--1-1-1-1-1------2--1-|--1-1-1-1-1-1------||
D||.--4-4-4-4-4-4-4---|--2-2-2-2-2-2-2---|--2-2-2-2-2--2/4---4--|--2-2-2-2-2-2------||
A||---2-2-2-2-2-2-2---|--0-0-0-0-0-0-0---|--2-2-2-2-2-----------|--2-2-2-2-2-2------||
E||-------------------|------------------|----------------------|-------------------||
PM    . . . . . . .      . . . . . . .      . . . . .             . . .   . .

     Strange what desire

Guitars differ from here on

Pre Chorus:

Rythm guitar:
e||-------------------|------------------|-------------------------|---------------------||
b||-------------------|------------------|-------------------------|---------------------||
g||.--4-4-4-4-4-4-4---|--2-2-2-2-2-2-2---|--1-1-1-1-1------2----1--|--1-1-1-1-1-1--------||
D||.--4-4-4-4-4-4-4---|--2-2-2-2-2-2-2---|--2-2-2-2-2--2/4---4-----|--2-2-2-2-2-2--------||
A||---2-2-2-2-2-2-2---|--0-0-0-0-0-0-0---|--2-2-2-2-2--------------|--2-2-2-2-2-2--------||
E||-------------------|------------------|-------------------------|---------------------||
PM      . . . . . .        . . . . . .        . . . .                 . . .   . .        
      I never dreamed                                                              
Lead guitar                                                                           
e||-------------------|------------------|--------------------------|--------------------||
b||-------------------|------------------|--------------------------|--------------------||
g||.--4-4-4-4-4-4-4---|--2-2-2-2-2-2-2---|--1-1-1-1-1-----------9---|--------------------||
D||.--4-4-4-4-4-4-4---|--2-2-2-2-2-2-2---|--2-2-2-2-2--6h7-9-9----9-(let ring)-----------||
A||---2-2-2-2-2-2-2---|--0-0-0-0-0-0-0---|--2-2-2-2-2---------------|--------------------||
E||-------------------|------------------|--------------------------|--------------------||
PM      . . . . . .        . . . . . .        . . . .

Chorus A:

Rythm guitar
e||-------------------|------------------------|-----------------------|--------------------||
b||-------------------|------------------------|-----------------------|--------------------||
g||.--4-4-4-4-4-4-4---|--2-2-2-2-2-2-2---------|--1-1-1-1-1-----2---1--|--1-1-1-1-1-1------.||
D||.--4-4-4-4-4-4-4---|--2-2-2-2-2-2-2---------|--2-2-2-2-2-2/4---4----|--2-2-2-2-2-2------.||
A||---2-2-2-2-2-2-2---|--0-0-0-0-0-0-0---------|--2-2-2-2-2------------|--2-2-2-2-2-2-------||
E||-------------------|------------------------|-----------------------|--------------------||
PM      . . . . . .        . . . . . .              . . . .               . . .   . .
   No I don't wanna fall in love                                     


Lead guitar
e||-------------------|-------------------------|----------------------|-------------------||
b||-----7-------------|-------------------------|----------------------|-------------------||
g||.------7---9--7----|---6---------------------|---9--------------9---|------9------------||
D||.--9-----7------9--|-----7----9-7---7-6------|-6----6---6--6h7------|---9-----9---------||
A||-------------------|-7-----7------7----------|--------7---7---------|-------------------||
E||-------------------|-------------------------|----------------------|-------------------||


Chorus A endng:

Rythm guitar
e||-------------------|------------------------|---------------------------|--------------------||
b||-------------------|------------------------|---------------------------|--------------------||
g||.--4-4-4-4-4-4-4---|--2-2-2-2-2-2-2---------|--1-1-1-1-1------2----1----|--1-1-1-1-1-1------.||
D||.--4-4-4-4-4-4-4---|--2-2-2-2-2-2-2---------|--2-2-2-2-2--2/4---4-------|--2-2-2-2-2-2------.||
A||---2-2-2-2-2-2-2---|--0-0-0-0-0-0-0---------|--2-2-2-2-2----------------|--2-2-2-2-2-2-------||
E||-------------------|------------------------|---------------------------|--------------------||
PM      . . . . . .        . . . . . .              . . . .                   . . .   . .

                                                    This world is only gonna

Lead guitar
e||-------------------|-------------------------|---------------------------|-------------------||
b||-----7-------------|-------------------------|---------------------------|-------------------||
g||.------7---9--7----|---6-6-------------------|--------------------------9|-----9-------------||
D||.--------7------7--|-------9*----------------|-7-6b7r6b7r6b7r6---6h7-----|--9-----9---9------||
A||-------------------|-------------------------|---------------------------|-------------------||
E||-------------------|-------------------------|---------------------------|-------------------||


The solo I'm sure is at least 99% correct so here

Solo:
[ Tab from: http://www.guitartabs.cc/tabs/h/him/wicked_game_tab.html ]
Rythm guitar
e||-------------------|------------------------|---------------------------|--------------------||
b||-------------------|------------------------|---------------------------|--------------------||
g||.--4-4-4-4-4-4-4---|--2-2-2-2-2-2-2---------|--1-1-1-1-1------2---1-----|--1-1-1-1-1-1------.||
D||.--4-4-4-4-4-4-4---|--2-2-2-2-2-2-2---------|--2-2-2-2-2--2/4---4-------|--2-2-2-2-2-2------.||
A||---2-2-2-2-2-2-2---|--0-0-0-0-0-0-0---------|--2-2-2-2-2----------------|--2-2-2-2-2-2-------||
E||-------------------|------------------------|---------------------------|--------------------||
PM      . . . . . .        . . . . . .              . . . .                   . . .   . .

Lead guitar
e||-------------------|-------------------------|---------------------------|-------------------||
b||-------------------|-------------------------|---------------------------|-------------------||
g||.---10b11(let ring)|----------10b11r10-------|-----9---------------------|-------------------||
D||.------------------|-------------------------|--9----9--------7----6-7-6-|--9*---------------||
A||-------------------|-------------------------|------------7------7-------|-------------------||
E||-------------------|-------------------------|---------------------------|-------------------||

cont. solo

Rythm guitar
e||-------------------|------------------------|---------------------------|--------------------||
b||-------------------|------------------------|---------------------------|--------------------||
g||.--4-4-4-4-4-4-4---|--2-2-2-2-2-2-2---------|--1-1-1-1-1------2----1----|--1-1-1-1-1-1------.||
D||.--4-4-4-4-4-4-4---|--2-2-2-2-2-2-2---------|--2-2-2-2-2--2/4---4-------|--2-2-2-2-2-2------.||
A||---2-2-2-2-2-2-2---|--0-0-0-0-0-0-0---------|--2-2-2-2-2----------------|--2-2-2-2-2-2-------||
E||-------------------|------------------------|---------------------------|--------------------||
PM      . . . . . .        . . . . . .              . . . .                   . . .   . .

Lead guitar
e||-------------------|-------------------------|---------------------------|-------------------||
b||-------------------|-------------------------|---------------------------|-------------------||
g||.---10b11 11(let ring)----------10b11r10-----|-----9---------------------|-------------------||
D||.------------------|-------------------------|--9----9--------7----6-7-6(let ring)-----------||
A||-------------------|-------------------------|------------7------7-------|-------------------||
E||-------------------|-------------------------|---------------------------|-------------------||

cont. solo

Rythm guitar
e||-------------------|------------------------|---------------------------|--------------------||
b||-------------------|------------------------|---------------------------|--------------------||
g||.--4-4-4-4-4-4-4---|--2-2-2-2-2-2-2---------|--1-1-1-1-1------2-----1---|--1-1-1-1-1-1------.||
D||.--4-4-4-4-4-4-4---|--2-2-2-2-2-2-2---------|--2-2-2-2-2--2/4----4------|--2-2-2-2-2-2------.||
A||---2-2-2-2-2-2-2---|--0-0-0-0-0-0-0---------|--2-2-2-2-2----------------|--2-2-2-2-2-2-------||
E||-------------------|------------------------|---------------------------|--------------------||
PM      . . . . . .        . . . . . .              . . . .                   . . .   . .

Lead guitar
e||-------------------|-------------------------|---------------------------|-------------------||
b||-----7-------------|-------------------------|---------------------------|-------------------||
g||.------7---9--7----|---6-6-------------------|--------------------------9|-----9-------------||
D||.--------7------7--|-------9*----------------|-7-6b7r6b7r6b7r6---6h7-----|--9-----9---9------||
A||-------------------|-------------------------|---------------------------|-------------------||
E||-------------------|-------------------------|---------------------------|-------------------||


cont. solo
Rythm guitar
e||-------------------|------------------------|---------------------------|--------------------||
b||-------------------|------------------------|---------------------------|--------------------||
g||.--4-4-4-4-4-4-4---|--2-2-2-2-2-2-2---------|--1-1-1-1-1-------2-----1--|--1-1-1-1-1-1------.||
D||.--4-4-4-4-4-4-4---|--2-2-2-2-2-2-2---------|--2-2-2-2-2--2/4-----4-----|--2-2-2-2-2-2------.||
A||---2-2-2-2-2-2-2---|--0-0-0-0-0-0-0---------|--2-2-2-2-2----------------|--2-2-2-2-2-2-------||
E||-------------------|------------------------|---------------------------|--------------------||
PM      . . . . . .        . . . . . .              . . . .                   . . .   . .

Lead guitar
e||-------------------|-------------------------|---------------------------|-------------------||
b||-----7-------------|-------------------------|---------------------------|-------------------||
g||.------7---9--7----|--6--6-------------------|---------------------------|-------------------||
D||.--------7------7--|-------9*----------------|-7-----6~(let ring)--------|-------------------||
A||-------------------|-------------------------|---------------------------|-------------------||
E||-------------------|-------------------------|---------------------------|-------------------||

Verse b: 

both guitars (clean)
e||-----------------|----------------------|----------------------|-------------------||
b||-----------------|----------------------|----------------------|-------------------||
g||.--7-------------|-6--------------------|----------------------|-------------------||
D||.----9---11-9----|---7----9--7----7-----|--6--------------7----|--6----------------||
A||-------9------9--|-----7-------7--------|----------------------|-----------9-------||
E||-----------------|----------------------|----------------------|-------------------||

e||-----------------|----------------------|----------------------|-------------------||
b||-----------------|----------------------|----------------------|-------------------||
g||--7--------------|-6--------------------|----------------------|-------------------||
D||----9----11-9----|---7----9--7---7------|--6--------------7----|-------------------||
A||-------9------9--|-----7-------7--------|----------------------|-----/X------------||
E||-----------------|----------------------|----------------------|-----/X------------||

Endng chord:
both guitars
e||-----|
b||-----|
g||.--4-|
D||.--4-|
A||---2-|
E||-----|

Order:              
Main Riff         2
Verse A           1
Main Riff         1
Prechorus         1
Chorus            2
Chorus ending     1
Verse A           1
Main Riff         1
Prechorus         1
Chorus            2
Solo              1
Verse B           1
Main riff         1
Prechorus         1
Chorus            5
Ending chord
Comments