Him - Wicked Game Chords & Tabs

 

Wicked Game Chords & Tabs

Him Chords & Tabs

Version: 1 Type: Chords 0 ratings
1 star 2 stars 3 stars 4 stars 5 stars
comments

Wicked Game Chords

   
Him
Wicked Game

The chords are same through out(exept a lil' bit of mutin in some places)

the chords are:-

Bm   A   E

These are the riffs:- (time it yer self! listen to the cd a while 
and u'll know what to put where)

[ Tab from: http://www.guitartabs.cc/tabs/h/him/wicked_game_crd.html ]
Riff3
e-2----0----------------------------------(this is the part that comes after"and 
B---3----3--2----0------------------------ iiiiii don't wanna fall in love...with you" 
G-------------4----4-2--1-----1-2-4~~~~---
D----------------------2----2-------------
A-----------------------------------------
E-----------------------------------------
 Bm           A         E         E
 
 
Fill 2
|-----------|
|-----------|
|----1-2-4--|
|--2--------|
|-----------|
|-----------|
Comments