Him - Vampire Heart Chords & Tabs

 

Vampire Heart Chords & Tabs

Him Chords & Tabs

Version: 7 Type: Tab

Vampire Heart Tab

Vampire Heart by HIM


E|--7--------7--------7-----8--------6-------------|
B|-----------------------------8--8----------------|
G|-----9--9-----9--9-----9-------------------------| repeat
D|-------------------------------------------------|  x2
A--------------------------------------------------|
E|-------------------------------------------------|

E|---------------------------------------------------------------------------|
B|---------------------------------------------------------------------------|
G|---------------------------------------------------------------------------|
D|--------------------5--5--5----2--2--2-----5/7---7--7--7--7--7--7---73-----|
A|--5--5---5--5--5----5--5--5----2--2--2-----5/7---7--7--7--7--7--7---73-----|
E|--3--3---3--3--3----5--5--5----2--2--2-----5/7---7--7--7--7--7--7---73-----|

-------------------------------------------------------------|
-------------------------------------------------------------|
-------------------------------------------------------------|
---3---3---3---3---3---3-------------------------------------|
---3---3---3---3---3---3-------------------------------------|
---3---3---3---3---3---3-------------------------------------|
[ Tab from: http://www.guitartabs.cc/tabs/h/him/vampire_heart_tab_ver_7.html ]
                             palm mute
  xxxxxxxxxxxxxxxxxxxxxxxxxxxxxxxxxxxxxxxxxxxxxxxxxxxxxxxxxxxxxxxxxxxxxxxxxx
E|---------------------------------------------------------------------------|
B|---------------------------------------------------------------------------|
G|---------------------------------------------------------------------------|
D|--------------------5--5--5---2--2--2----5/7---7--7--7--7--7--7---73-------|
A|--5--5---5--5--5----5--5--5---2--2--2----5/7---7--7--7--7--7--7---73-------|
E|--3--3---3--3--3----5--5--5---2--2--2----5/7---7--7--7--7--7--7---73-------|


                     palm mute
xxxxxxxxxxxxxxxxxxxxxxxxxxxxxxxxxxxxxxxxxxxxxxxxxxxxxxxxxxxxx
-------------------------------------------------------------|
-------------------------------------------------------------|
-------------------------------------------------------------|
---3---3---3---3---3---3-------------------------------------|
---3---3---3---3---3---3-------------------------------------|
---3---3---3---3---3---3-------------------------------------|


this is the closest version i could think of for this song its kind of tricky but once 
get the hang of it it is easy

       enjoy playing vampire heart!!