Him - This Fortress Of Tears Chords & Tabs

 

This Fortress Of Tears Chords & Tabs

Him Chords & Tabs

Version: 1 Type: Bass Tab 0 ratings
1 star 2 stars 3 stars 4 stars 5 stars
comments

This Fortress Of Tears Bass Tab

HIM: This Fortress Of Tears (from „Love Metal") 
Tabbed by Dani69 

After the guitar intro this riff (play along with the guitar): 

G|----------------------------------------------------------------| 
D|----------------------------------------------------------------| 
A|----------------------------------------------------------------| 
E|5-7-----7---7-7-7---7-7-5---5---5-3-------3-2-0-----------------| 4x 

Then the Verse: 

G|----------------|----------------|----------------|----------------|
D|----------------|----------------|----------------|----------------|
A|----------------|----------------|----------------|------------3---|
E|7---------------|--------0-3-7---|5---------------|--------2-5-----| 

G|----------------|----------------|----------------|----------------|
D|----------------|----------------|----------------|----------------|
A|5---------------|------------3---|5---------------|-------/7-5-0---|
E|----------------|--------2-5-----|----------------|----------------| 
[ Tab from: http://www.guitartabs.cc/tabs/h/him/this_fortress_of_tears_btab.html ]
G|----------------|----------------|----------------|----------------|
D|----------------|----------------|----------------|----------------|
A|----------------|----------------|----------------|------------3---|
E|7---------------|--------0-3-7---|5---------------|--------2-5-----| 

G|----------------|----------------|----------------|----------------|
D|----------------|----------------|----------------|----------------|
A|5---------------|------------3---|5---5-----------|----------------|
E|----------------|--------2-5-----|-----------5----|----7-----------| 

Then the Chorus: 

G|----------------|----------------|----------------|----------------|
D|----------------|----------------|----------------|----------------|
A|5---5---5---5---|----------------|----------------|----5-----------| 
E|----------------|7---7---7---7---|5---5---5---5---|3-------5-------|  


The chorus is actually not played in 1/4 notes, Mige does variations. 
I know that the rhythm isn't quite right but the notes are so just listen to it and you'll find out easily. 
That's all I got till now. If somebody got corrections please do also send them to me Daniel69s@aol.com
Comments