Him - The Sacrament Chords & Tabs

 

The Sacrament Chords & Tabs

Him Chords & Tabs

Version: 3 Type: Bass Tab 0 ratings
1 star 2 stars 3 stars 4 stars 5 stars
comments

The Sacrament Bass Tab

   
first burton plays the intro

then comes the chorus
G|----------------|----------------|----------------|----------------|
D|----------------|----------------|----------------|----------------|
A|----------------|3-3-3-3-3-3-3-3-|----------------|----------------|
E|0-0-0-0-0-0-0-0-|----------------|5-5-5-5-5-5-5-5-|5-5-5-5-5-5-5-5-|

G|----------------|----------------|----------------|----------------|
D|----------------|----------------|----------------|----------------|
A|----------------|3-3-3-3-3-3-3-3-|----------------|----------------|
E|0-0-0-0-0-0-0-0-|----------------|5-5-5-5-5-5-5-5-|5-5-5-5-5-5-5-5-|

G|----------------|----------------|----------------|----------------|
D|----------------|----------------|----------------|----------------|
A|----------------|3-3-3-3-3-3-3-3-|----------------|----------------|
E|0-0-0-0-0-0-0-0-|----------------|5-5-5-5-5-5-5-5-|3-3-3-3-3-3-3-3-|

G|----------------|----------------|----------------|----------------|
D|----------------|----------------|----------------|----------------|
A|----------------|3-3-3-3---------|----------------|----------------|
E|0-0-0-0-0-0-0-0-|----------------|5----3----------|----------------|

Verse
G|----------------|----------------|----------------|----------------|
D|----------------|----------------|----------------|----------------|
A|----------------|----------------|----------------|----------------|
E|5-5-5-5-5-5-5-5-|5-5-5-5-5-5-5-5-|8-8-8-8-8-8-8-8-|8-8-8-8-8-8-8-8-|

G|----------------|----------------|----------------|----------------|
D|----------------|----------------|----------------|----------------|
A|----------------|----------------|----------------|----------------|
E|5-5-5-5-5-5-5-5-|5-5-5-5-5-5-5-5-|8-8-8-8-8-8-8-8-|8-8-8-8-8-8-8-8-|

G|----------------|----------------|----------------|----------------|
D|----------------|----------------|----------------|----------------|
A|5-5-5-5-5-5-5-5-|7-7-7-7-7-7-7-7-|----------------|----------------|
E|----------------|----------------|3-3-3-3-3-3-3-3-|5-5-5-5-5-5-5-5-|

G|----------------|----------------|----------------|----------------|
D|----------------|----------------|----------------|----------------|
A|5-5-5-5-5-5-5-5-|7-7-7-7-7-7-7-7-|----------------|----------------|
E|----------------|----------------|3-3-3-3-3-3-3-3-|5-5-5-5-5-5-5-5-|

G|----------------|----------------|----------------|----------------|
D|----------------|----------------|----------------|----------------|
A|5-5-5-5-5-5-5-5-|7-7-7-7-7-7-7-7-|----------------|----------------|
E|----------------|----------------|3-3-3-3-3-3-3-3-|5-5-5-5-5-5-5-5-|

G|----------------|----------------|----------------|----------------|
D|----------------|-----12-11-12-11|12-11-12-11-----|----------------|
A|----------------|10--------------|-------------10-|----------------|
E|7---------------|----------------|----------------|----------------|

the chorus again
G|----------------|----------------|----------------|----------------|
D|----------------|----------------|----------------|----------------|
A|----------------|3-3-3-3-3-3-3-3-|----------------|----------------|
E|0-0-0-0-0-0-0-0-|----------------|5-5-5-5-5-5-5-5-|5-5-5-5-5-5-5-5-|

G|----------------|----------------|----------------|----------------|
D|----------------|----------------|----------------|----------------|
A|----------------|3-3-3-3-3-3-3-3-|----------------|----------------|
E|0-0-0-0-0-0-0-0-|----------------|5-5-5-5-5-5-5-5-|5-5-5-5-5-5-5-5-|

G|----------------|----------------|----------------|----------------|
D|----------------|----------------|----------------|----------------|
A|----------------|3-3-3-3-3-3-3-3-|----------------|----------------|
E|0-0-0-0-0-0-0-0-|----------------|5-5-5-5-5-5-5-5-|3-3-3-3-3-3-3-3-|

G|----------------|----------------|----------------|----------------|
D|----------------|----------------|----------------|----------------|
A|----------------|3-3-3-3---------|----------------|----------------|
E|0-0-0-0-0-0-0-0-|----------------|5----3----------|----------------|

Verse
G|----------------|----------------|----------------|----------------|
D|----------------|----------------|----------------|----------------|
A|----------------|----------------|----------------|----------------|
E|5-5-5-5-5-5-5-5-|5-5-5-5-5-5-5-5-|8-8-8-8-8-8-8-8-|8-8-8-8-8-8-8-8-|
[ Tab from: http://www.guitartabs.cc/tabs/h/him/the_sacrament_btab_ver_3.html ]
G|----------------|----------------|----------------|----------------|
D|----------------|----------------|----------------|----------------|
A|----------------|----------------|----------------|----------------|
E|5-5-5-5-5-5-5-5-|5-5-5-5-5-5-5-5-|8-8-8-8-8-8-8-8-|8-8-8-8-8-8-8-8-|

G|----------------|----------------|----------------|----------------|
D|----------------|----------------|----------------|----------------|
A|5-5-5-5-5-5-5-5-|7-7-7-7-7-7-7-7-|----------------|----------------|
E|----------------|----------------|3-3-3-3-3-3-3-3-|5-5-5-5-5-5-5-5-|

G|----------------|----------------|----------------|----------------|
D|----------------|----------------|----------------|----------------|
A|5-5-5-5-5-5-5-5-|7-7-7-7-7-7-7-7-|----------------|----------------|
E|----------------|----------------|3-3-3-3-3-3-3-3-|5-5-5-5-5-5-5-5-|

G|----------------|----------------|----------------|----------------|
D|----------------|----------------|----------------|----------------|
A|5-5-5-5-5-5-5-5-|7-7-7-7-7-7-7-7-|----------------|----------------|
E|----------------|----------------|3-3-3-3-3-3-3-3-|5-5-5-5-5-5-5-5-|

G|----------------|----------------|----------------|----------------|
D|----------------|-----12-11-12-11|12-11-12-11-----|----------------|
A|----------------|10--------------|-------------10-|----------------|
E|7---------------|----------------|----------------|----------------|

the chorus again
G|----------------|----------------|----------------|----------------|
D|----------------|----------------|----------------|----------------|
A|----------------|3-3-3-3-3-3-3-3-|----------------|----------------|
E|0-0-0-0-0-0-0-0-|----------------|5-5-5-5-5-5-5-5-|5-5-5-5-5-5-5-5-|

G|----------------|----------------|----------------|----------------|
D|----------------|----------------|----------------|----------------|
A|----------------|3-3-3-3-3-3-3-3-|----------------|----------------|
E|0-0-0-0-0-0-0-0-|----------------|5-5-5-5-5-5-5-5-|5-5-5-5-5-5-5-5-|

G|----------------|----------------|----------------|----------------|
D|----------------|----------------|----------------|----------------|
A|----------------|3-3-3-3-3-3-3-3-|----------------|----------------|
E|0-0-0-0-0-0-0-0-|----------------|5-5-5-5-5-5-5-5-|3-3-3-3-3-3-3-3-|

G|----------------|----------------|----------------|----------------|
D|----------------|----------------|----------------|----------------|
A|----------------|3-3-3-3---------|----------------|----------------|
E|0-0-0-0-0-0-0-0-|----------------|5---------------|----------------|

here comes the part when valo sings the sacrament is you 4 times (burton playes alone.

the chorus again
G|----------------|----------------|----------------|----------------|
D|----------------|----------------|----------------|----------------|
A|----------------|3-3-3-3-3-3-3-3-|----------------|----------------|
E|0-0-0-0-0-0-0-0-|----------------|5-5-5-5-5-5-5-5-|5-5-5-5-5-5-5-5-|

G|----------------|----------------|----------------|----------------|
D|----------------|----------------|----------------|----------------|
A|----------------|3-3-3-3-3-3-3-3-|----------------|----------------|
E|0-0-0-0-0-0-0-0-|----------------|5-5-5-5-5-5-5-5-|5-5-5-5-5-5-5-5-|

G|----------------|----------------|----------------|----------------|
D|----------------|----------------|----------------|----------------|
A|----------------|3-3-3-3-3-3-3-3-|----------------|----------------|
E|0-0-0-0-0-0-0-0-|----------------|5-5-5-5-5-5-5-5-|3-3-3-3-3-3-3-3-|

G|----------------|----------------|----------------|----------------|
D|----------------|----------------|----------------|----------------|
A|----------------|3-3-3-3---------|----------------|----------------|
E|0-0-0-0-0-0-0-0-|----------------|5----5----5----5|----------------|

G|----------------|----------------|----------------|----------------|
D|----------------|----------------|----------------|----------------|
A|----------------|3-3-3-3-3-3-3-3-|----------------|----------------|
E|0-0-0-0-0-0-0-0-|----------------|5-5-5-5-5-5-5-5-|5-5-5-5-5-5-5-5-|

G|----------------|----------------|----------------|----------------|
D|----------------|----------------|----------------|----------------|
A|----------------|3-3-3-3-3-3-3-3-|----------------|----------------|
E|0-0-0-0-0-0-0-0-|----------------|5-5-5-5-5-5-5-5-|5-5-5-5-5-5-5-5-|

G|----------------|----------------|----------------|----------------|
D|----------------|----------------|----------------|----------------|
A|----------------|3-3-3-3-3-3-3-3-|----------------|----------------|
E|0-0-0-0-0-0-0-0-|----------------|5-5-5-5-5-5-5-5-|3-3-3-3-3-3-3-3-|

G|----------------|
D|----------------|
A|----------------|
E|0-0-0-0-0-0-0-0-|  

Valo sings the sacrment is you then its finished.
A very easey song.
Comments