Him - The Heartless Chords & Tabs

 

The Heartless Chords & Tabs

Him Chords & Tabs

Version: 1 Type: Bass Tab 0 ratings
1 star 2 stars 3 stars 4 stars 5 stars
comments

The Heartless Bass Tab

   
The Heartless - HIM

Riff 1: (x2)
G:-----------------|-----------------|-----------------|-----------------|-----------------|
D:-----------------|-----------------|-----------------|-----------------|-----------------|
A:-----------------|-----------------|-----------------|-----------------|-----------------|
E:-----------------|-----------------|-----------------|-----------------|-----------------|
B:-2/-5-5-5--5-5-5-|-*-5-5-5-2-2-2-2-|-2/-5-5-5--5-5-5-|-*-5-5-5-2-2-2-2-|-2/-5-5-5--5-5-5-|

G:-----------------|----------------|-----------------|
D:-----------------|----------------|-----------------|
A:-----------------|-5-5-5-5--5-5-5-|-*-5-4-4-4-4-4-4-|
E:-----------------|----------------|-----------------|
B:-*-5-5-5-2-2-2-2-|----------------|-----------------|

Riff 2: (x7)
G:------------------|-----------------|
D:------------------|-----------------|
A:-/7-7-7-7-7-7-7-7-|-7-5-5-5-5-4-4-4-|
E:------------------|-----------------|
B:------------------|-----------------|

Fill: (?)
G:----------------|-------------------|
D:----------------|-------------------|
A:----------------|-------------------|
E:-3-3-3-3--3-3-3-|-*-2h3-2h3-5-3-2-3-|
B:----------------|-------------------|

Riff 1
Riff 2 (x3)
Fill
Riff 1 (x2)
[ Tab from: http://www.guitartabs.cc/tabs/h/him/the_heartless_btab.html ]
Riff 4:
G:-----------------|-----------------|-----------------|-----------------|-----------------|
D:-----------------|-----------------|-----------------|-----------------|-----------------|
A:-4-4-4-4-4-4-4-4-|-4-4-4-4-4-4-4-4-|-4-4-4-4-4-4-4-4-|-4-4-4-4-4-4-4-4-|-4-4-4-4-4-4-4-4-|
E:-----------------|-----------------|-----------------|-----------------|-----------------|
B:-----------------|-----------------|-----------------|-----------------|-----------------|

G:-----------------|-----------------|-----------------|-----------------|-----------------|
D:-----------------|-----------------|-----------------|-----------------|-----------------|
A:-4-4-4-4-4-4-4-4-|-4-4-4-4-4-4-4-4-|-4-4-4-4-4-4-4-4-|-0-0-0-0-0-0-0-0-|-0-0-0-0-0-0-0-0-|
E:-----------------|-----------------|-----------------|-----------------|-----------------|
B:-----------------|-----------------|-----------------|-----------------|-----------------|

G:-----------------|-----------------|-----------------|-----------------|-----------------|
D:-----------------|-----------------|-----------------|-----------------|-----------------|
A:-0-0-0-0-0-0-0-0-|-0-0-0-0-0-0-0-0-|-----------------|-----------------|-----------------|
E:-----------------|-----------------|-3-3-3-3-3-3-3-3-|-3-3-3-3-3-3-3-3-|-3-3-3-3-3-3-3-3-|
B:-----------------|-----------------|-----------------|-----------------|-----------------|

G:-----------------|
D:-----------------|
A:-----------------|
E:-3-3-3-3-3-3-3-3-|
B:-----------------|

Riff 5: (x4)
G:---------------|----------------|
D:---------------|----------------|
A:---------------|----------------|
E:------4--------|------------3-4-|
B:-2--2---2-2--2-|-2-2-2--2-2-----|

Pause for 8 measures
Riff 1 (x2)
Break till end
Comments