Him - The Funeral Of Hearts Chords & Tabs

 

The Funeral Of Hearts Chords & Tabs

Him Chords & Tabs

Version: 2 Type: Tab 0 ratings
1 star 2 stars 3 stars 4 stars 5 stars
comments

The Funeral Of Hearts Tab

   
Him - The Funeral of Hearts
tabbed by Daskpope
Standart Tuning


Intro

2x
guitar 1(clean)
e--14--14--14--14-12--12--12--12-17--17--17--17-19--19-19-19-17-16--
b--14--14--14--14-12--12--12--12-17--17--17--17-17--17-17-17-17-16--
g-------------------------------------------------------------------
d-------------------------------------------------------------------
a-------------------------------------------------------------------
E-------------------------------------------------------------------


guitar 2(acoustic)
2x

   F#             E               A               B            A  



Refrain

guitar (heavy distortion)
  2x

e-----------------------------------------------------------------------
b-----------------------------------------------------------------------
g-----------------------------------------------------------------------
d--4-4-4-4--4-4-4-4--2-2-2-2--2-2-2-2--7-7-7-7--7-7-7-7--9-9-9-9-9--7-6-
a--4-4-4-4--4-4-4-4--2-2-2-2--2-2-2-2--5-5-5-5--5-5-5-5--7-7-7-7-7--5-4-
E--2-2-2-2--2-2-2-2--0-0-0-0--0-0-0-0--5-5-5-5--5-5-5-5--7-7-7-7-7--5-4-


Verse

guitar1 (light distortion)

d------------------------------------------------------------------------
a------------------------------------------------------------------------
E--2-2-2-2--2-2-2-2--0-0-0-0--0-0-0-0--5-5-5-5--5-5-5-5--7-7-7-7-7-5-4-4-
   ..............................pm.....................................
[ Tab from: http://www.guitartabs.cc/tabs/h/him/the_funeral_of_hearts_tab_ver_2.html ]
g-----------------------------------------------------------------2-------
d-------------------------------------------------------------------2-4---
a-----------------------------------------------------------------------0-
E--2-2-2-2--2-2-2-2--0-0-0-0--0-0-0-0--2-2-2-2--2-2-2-2--2-2-2-2----------
   ..............................pm.............................


d------------------------------------------------------------------------
a------------------------------------------------------------------------
E--2-2-2-2--2-2-2-2--0-0-0-0--0-0-0-0--5-5-5-5--5-5-5-5--7-7-7-7-7-5-4-4-
   ..............................pm.....................................


g-------------------------------------------------------------------------
d--------------------------------------4-4-4-4--4-4-4-4--7-7--9-9---------
a--------------------------------------4-4-4-4--4-4-4-4--5-5--7-7---------
E--2-2-2-2--2-2-2-2--0-0-0-0--0-0-0-0--2-2-2-2--2-2-2-2--5-5--7-7---------
   .................pm...............


 play Refrain  4x

 play verse again then comes the solo 


  solo

 d---7--6--4----4--6--6--7-------9--11~~~--7--6--7------4--6--6--7--6--------
 a-----------7-----------------9---------------------7------------------7~---


  guitar 2 plays during solo only F# and  E  


 after solo 

   guitar (heavy distortion)

 d--4--2-------------------4--2-----------------7----7-7--9-9----------------
 a--4--2-------------------4--2-----------------5----5-5--7-7---444444444444-
 E--2--0--4--5--7--5---4---2--0--4--5--7--9--7--5----5-5--7-7---222222222222-
                                                                ....pm..
  

  drum break

 d--6-6-6-6--6-6-6-6--9-9-9-9--8-8-8-8--
 a--6-6-6-6--6-6-6-6--9-9-9-9--8-8-8-8--
 E--4-4-4-4--4-4-4-4--7-7-7-7--6-6-6-6--


  play this 3x
 d--6-6-6-6--6-6-6-6--4-4-4-4--4-4-4-4--9-9-9-9--9-9-9-9--1111111111--9-8--
 a--6-6-6-6--6-6-6-6--4-4-4-4--4-4-4-4--9-9-9-9--9-9-9-9--1111111111--9-8--
 E--4-4-4-4--4-4-4-4--2-2-2-2--2-2-2-2--7-7-7-7--7-7-7-7--9-9-9-9-9---7-6--


 the end
Comments