Him - Sweet Pandemonium Chords & Tabs

 

Sweet Pandemonium Chords & Tabs

Him Chords & Tabs

Version: 1 Type: Tab 0 ratings
1 star 2 stars 3 stars 4 stars 5 stars
comments

Sweet Pandemonium Tab

the verse is basically part 1, intro, part 1, part 2, 
this is an alternate version, maybe if you want a guitar 2, or want to play it different

intro
e------------------------------------------------------------------------------------|
b------------------------------------------------------------------------------------|
g------------------------------------------------------------------------------------|
d------------------------------------------------------------------------------------| 
a------------------------------------------------------------------------------------|
e-8-10-10-10-10-8-8-8-8-6-8-8-8-6-3-3-3-3--8-10-10-10-10sb-8-8-8-6-8-8-8-6-3-3-3-3---|  

part 1 
e------------------------------------------
b------------------------------------------
g------------------------------------------
d-5*--------------------------------------- let fade out on its own
a-5*---------------------------------------
e-3*---------------------------------------
[ Tab from: http://www.guitartabs.cc/tabs/h/him/sweet_pandemonium_tab.html ]
part 2
e--------------------------------------------
b--------------------------------------------
g--------------------------------------------
d-5-5-----5-5-------------------------------- 
a-5-5-----5-5--------------------------------
e-3-3-----3-3--------------------------------

chorus (played twice)
e--------------------------------------------------------------------------
b--------------------------------------------------------------------------
g--------------------------------------------------------------------------
d-7-7-7-7-10-10-10-10-5-5-5-5-7-7-7-7--7-7-7-7-10-10-10-10-5-5-5-5-5-5-5-5-
a-7-7-7-7-10-10-10-10-5-5-5-5-7-7-7-7--7-7-7-7-10-10-10-10-5-5-5-5-5-5-5-5-
e-5-5-5-5-8 -8 -8 -8 -3-3-3-3-5-5-5-5--5-5-5-5-8 -8 -8 -8 -3-3-3-3-3-3-3-3-
(keyboard plays twiddly bit at end of this line)

bridge x4                                            end 4th time
e---------------------------------------------------|---
b---------------------------------------------------|---
g---------------------------------------------------|---
d-7-5-------10/9-10/9-10/9-10/9-10/9-10/9-10/9-10/9-|-7-
a-7-5-----------------------------------------------|-7-
e-5-3-----------------------------------------------|-5-

order
intro x2
part 1
intro
part 1 (broken)
part 2
chorus
intro
part 1
intro
part 1
part 2 
chorus
bridge x4
altered intro
chorus till end

key 
* - let ring
sb - slight bend
Comments