Him - Sweet Pandemonium Chords & Tabs

 

Sweet Pandemonium Chords & Tabs

Him Chords & Tabs

Version: 2 Type: Bass Tab 0 ratings
1 star 2 stars 3 stars 4 stars 5 stars
comments

Sweet Pandemonium Bass Tab

Intro/ChorusA (bass comes in at 0.13)

G-------------------------------------------| (2x)
D-------------------------------------------|
A-1-3-3-3-3-4-3-1-1-1-5---1-1-1-1---1-------| some of them you don't hit just
E-----------------------4---------4---1-1-1-|  feel it

Verse

G------------------------------------| (1x)
D------------------------------------|
A----3-1-3--1-4-3-1---3-1-3--1-------|
E-1-----------------4----------4-3-1-|


ChorusA (2x)

Verse (1x)

Little Riff

G--------|
D--------|
A--------|
E-11--11-|
[ Tab from: http://www.guitartabs.cc/tabs/h/him/sweet_pandemonium_btab_ver_2.html ]
ChorusB
G----------------------|
D----------------------|
A-------5-6--6---------|
E-5-3-1--------3-1-3---|

G----------------------|
D----------------------|
A-------5-6--6-----5-3-|
E-5-3-1--------3-1-----|

ChorusA (2x)

Verse (1x)

ChorusA (2x)

Verse (1x)

ChorusB(2x)

Bridge

G---------------------------------------------------------| (4x)
D---------------------------------------------------------|
A-------------3-3-3-3-3-3---------------------------------|
E-1-1-1-1-1-1-------------6-5-6-5-6-5-6-5-6-5-6-5-6-5-6-5-|

ChorusB (4x)

now this sounds realy good on my guitar just i'm not shure if the guitar corect
Comments