Him - Sweet Pandemonium Chords & Tabs

 

Sweet Pandemonium Chords & Tabs

Him Chords & Tabs

Version: 1 Type: Bass Tab 0 ratings
1 star 2 stars 3 stars 4 stars 5 stars
comments

Sweet Pandemonium Bass Tab

HIM
Sweet Pandemonium

Intro/ChorusA (bass comes in at 0.13

G-------------------------------- (2x)
D--------------------------------
A-5-5-5-5-5-3-3-3-1-3-3-3-3------
E---------------------------3-3-3

Verse

G--------------------------------- (1x)
D------------1--------------------
A---------------------3-----------
E-3-----3----------3-----1----3---


ChorusA (2x)

Verse (1x)

Little Riff

G-------
D-------
A-------
E-33--33

ChorusB
[ Tab from: http://www.guitartabs.cc/tabs/h/him/sweet_pandemonium_btab.html ]
G-------------------------------------------------- (2x)
D-------------5-5-5--5-5-5-------------------------
A--------------------------------------------------
E-5-5-5-1-1-1--------------5-5-5-1-1-1-3-3-3--3-3-3

ChorusA (2x)

Verse (1x)

ChorusA (2x)

Verse (1x)

ChorusB(2x)

Bridge

G-------------------------------------------------------- (4x) --
D--------------------------------------------------------      --  
A-------------5-5-5-5-5-5--------------------------------      -- 
E-0-0-0-0-0-0-------------5-5-5-5-5-5-5-5-5-5-5-5-5-5-5-5      -0

G------------------------------------
D------------------------------------
A------------555555555555555555555555
E-0----------------------------------

ChorusB (4x)

This is it.
Thank You!!!
Comments