Him - Soul On Fire Chords & Tabs

 

Soul On Fire Chords & Tabs

Him Chords & Tabs

Version: 3 Type: Tab 0 ratings
1 star 2 stars 3 stars 4 stars 5 stars
comments

Soul On Fire Tab

Band: HIM
Song: Soul on Fire
Tuning: Standard
Tabbed by: TheMutts (halo2k@forerunners.org)



////////////////////////////////////////////////////////////////////////////
|--------------------------------------------------------------------------|

Note: This is the accurate tab for His Infernal Majesty's "Soul of Fire"

Intro (ok when bending the string, do it quick and not that big of a bend,
       just to get that sound like in the song. its easy as pie)
*distortion*                     8x
|---------------------------------|
|o-------------------------------o|
|---------------------------------|
|---------------------------------|
|o-----10b-10b---9b-9b---5-0-5-7-o|
|--0-0---------0-------0----------|


Verse (you can hear a guitar playing softly in the background, heres what
       I could transcribe)

*clean*
|---------------------|
|o-----------------2-o|
|----2-4------2-4-----|repeat as needed
|--0-----2--0---------|
|o-------------------o|
|---------------------|



Prechorus


*distortion*
|---------------------------------------|
|-------------------------------15b16r--|
|---------------------------------------|
|--0-0--10-10--0-0--12-12---------------|
|--0-0--10-10--0-0--12-12---------------|
|--0-0--8--8---0-0--10-10-10/12---------|
   PM-|        PM-|


Chorus

*distortion*
--------------------------------------------------|
--------------------------------------------------|
--------------------------------------------------|
--14-14-14-14-14-14-14-14-14-14-14-14-14-14-14-14-|
--14-14-14-14-14-14-14-14-14-14-14-14-14-14-14-14-|
--12-12-12-12-12-12-12-12-12-12-12-12-12-12-12-12-|
                                
--------------------------------------------------|
--------------------------------------------------|
--------------------------------------------------|
--14-14-14-14-14-14-14-14-14-14-14-14-14-14-14-14-|
--14-14-14-14-14-14-14-14-14-14-14-14-14-14-14-14-|
--12-12-12-12-12-12-12-12-12-12-12-12-12-12-12-12-|
                                                   
--------------------------------------------------|
--------------------------------------------------|
--------------------------------------------------|
--10-10-10-10-10-10-10-10-10-10-10-10-10-10-10-10-|
--10-10-10-10-10-10-10-10-10-10-10-10-10-10-10-10-|
--8--8--8--8--8--8--8--8--8--8--8--8--8--8--8--8--|
                                                   
--------------------------------------------------|
--------------------------------------------------|
--------------------------------------------------|
--12-12-12-12-12-12-12-12-12-12-12-12-12-12-12-12-|
--12-12-12-12-12-12-12-12-12-12-12-12-12-12-12-12-|
--10-10-10-10-10-10-10-10-10-10-10-10-10-10-10-10-|
                                                                     
----------------------------------|----------------------------------|
----------------------------------|----------------------------------|
----------------------------------|----------------------------------|
--2-2-2-2-2-2-2-2-2-2-2-2-2-2-2-2-|--4-4-4-4-4-4-4-4-4-4-4-4-4-4-4-4-|
--2-2-2-2-2-2-2-2-2-2-2-2-2-2-2-2-|--4-4-4-4-4-4-4-4-4-4-4-4-4-4-4-4-|
--0-0-0-0-0-0-0-0-0-0-0-0-0-0-0-0-|--2-2-2-2-2-2-2-2-2-2-2-2-2-2-2-2-|
                                  
----------------------------------|
----------------------------------|
----------------------------------|
--7-7-7-7-7-7-7-7-7-7-7-7-7-7-7-7-|
--7-7-7-7-7-7-7-7-7-7-7-7-7-7-7-7-|
--5-5-5-5-5-5-5-5-5-5-5-5-5-5-5-5-|

--------------------------------------------------|
--------------------------------------------------|
--------------------------------------------------|
--10-10-10-10-10-10-10-10-12-12-12-12-12-12-12-12-|
--10-10-10-10-10-10-10-10-12-12-12-12-12-12-12-12-|
--8--8--8--8--8--8--8--8--10-10-10-10-10-10-10-10-|



Chorus 2
[ Tab from: http://www.guitartabs.cc/tabs/h/him/soul_on_fire_tab_ver_3.html ]
*distortion*
----------------------------------|----------------------------------|
----------------------------------|----------------------------------|
----------------------------------|----------------------------------|
--2-2-2-2-2-2-2-2-2-2-2-2-2-2-2-2-|--2-2-2-2-2-2-2-2-2-2-2-2-2-2-2-2-|
--2-2-2-2-2-2-2-2-2-2-2-2-2-2-2-2-|--2-2-2-2-2-2-2-2-2-2-2-2-2-2-2-2-|
--0-0-0-0-0-0-0-0-0-0-0-0-0-0-0-0-|--0-0-0-0-0-0-0-0-0-0-0-0-0-0-0-0-|


                                                   
--------------------------------------------------|
--------------------------------------------------|
--------------------------------------------------|
--10-10-10-10-10-10-10-10-10-10-10-10-10-10-10-10-|
--10-10-10-10-10-10-10-10-10-10-10-10-10-10-10-10-|
--8--8--8--8--8--8--8--8--8--8--8--8--8--8--8--8--|


                                                   
--------------------------------------------------|
--------------------------------------------------|
--------------------------------------------------|
--12-12-12-12-12-12-12-12-12-12-12-12-12-12-12-12-|
--12-12-12-12-12-12-12-12-12-12-12-12-12-12-12-12-|
--10-10-10-10-10-10-10-10-10-10-10-10-10-10-10-10-|


                                                                      
----------------------------------|----------------------------------|
----------------------------------|----------------------------------|
----------------------------------|----------------------------------|
--2-2-2-2-2-2-2-2-2-2-2-2-2-2-2-2-|--4-4-4-4-4-4-4-4-4-4-4-4-4-4-4-4-|
--2-2-2-2-2-2-2-2-2-2-2-2-2-2-2-2-|--4-4-4-4-4-4-4-4-4-4-4-4-4-4-4-4-|
--0-0-0-0-0-0-0-0-0-0-0-0-0-0-0-0-|--2-2-2-2-2-2-2-2-2-2-2-2-2-2-2-2-|


                                   
----------------------------------|
----------------------------------|
----------------------------------|
--7-7-7-7-7-7-7-7-7-7-7-7-7-7-7-7-|
--7-7-7-7-7-7-7-7-7-7-7-7-7-7-7-7-|
--5-5-5-5-5-5-5-5-5-5-5-5-5-5-5-5-|


                                                   
--------------------------------------------------|
--------------------------------------------------|
--------------------------------------------------|
--10-10-10-10-10-10-10-10-12-12-12-12-12-12-12-12-|
--10-10-10-10-10-10-10-10-12-12-12-12-12-12-12-12-|
--8--8--8--8--8--8--8--8--10-10-10-10-10-10-10-10-|



Solo
*distortion*                                                         
--------------------------------------|
--------------------------12-10-8---8-|
----------------------------------9---|
--10--10--10--10--10--10--------------|
--10--10--10--10--10--10--------------|
--8---8---8---8---8---8---------------|


                                                                    
--12--12--12--12--15-12-10-12-10-12-10----10-12-|------------------|
---------------------------------------12-------|------------------|
------------------------------------------------|------------------|
------------------------------------------------|------------------|
------------------------------------------------|------------------|
------------------------------------------------|------------------|


                                                                   
--17r-17--15--12-15-12-7-10-7-5-3h5p3-5-3-5b|---5-3-0-------------|
--------------------------------------------|---------------------|
--------------------------------------------|---------------------|
--------------------------------------------|---------------------|
--------------------------------------------|---------------------|
--------------------------------------------|---------------------|


                                                       
----8~--8~----8~--------|----12~-12~---14~-14~--------|
----10--10----10--------|----13--13----15--15---------|
------------------------|-----------------------------|
------------------------|-----------------------------|
------------------------|--------------------------5~-|
------------------------|----------------------2-3----|


                                                                      

Repeat chorus 2


and repeat the intro part
Comments