Him - Soul On Fire Chords & Tabs

 

Soul On Fire Chords & Tabs

Him Chords & Tabs

Version: 1 Type: Tab 2 ratings
1 star 2 stars 3 stars 4 stars 5 stars
comments

Soul On Fire Tab

   
Yo.  I think this tab is about 95% right.  Its My first one.  

HIM -> Soul on fire

*= Artificial Harmonic

Main Riff
e|----------------------------------------|
B|----------------------------------------|
G|----------------------------------------|
D|----------------------------------------|
A|----------------------------------------|
E|-0-0-15-0-15-0-0-14-0-14-0-0-10-0-10-12-|
[ Tab from: http://www.guitartabs.cc/tabs/h/him/soul_on_fire_tab.html ]
Verse-Strum
e|-0--0--2--0--|
B|-0--1--3--1--|
G|-0--0--2--2--|
D|-2--2--0--2--|
A|-2--3-----0--|
E|-0--0--------|

Bridge/part after chorus
e|----------------------------------------|
B|----------------------------------------|
G|-----7-7-----5-5------------------------|
D|-x-x-7-7-x-x-5-5------------------------|
A|-x-x-5-5-x-x-3-3------------------------|
E|-x-x-----x-x----3-2--5*-----------------|


Enjoy
Comments