Him - Sigillum Diaboli Chords & Tabs

 

Sigillum Diaboli Chords & Tabs

Him Chords & Tabs

Version: 1 Type: Tab 0 ratings
1 star 2 stars 3 stars 4 stars 5 stars
comments

Sigillum Diaboli Tab

03/03/02
Sigillum Diaboli
HIM

Tabed By Lewis Millen 

If you have any questions about this song e-mail me at really_fat_lip@hotmail.com

Listen to the song to get the exact amount of strums.

Standard Tuning

-----------------------------------------------------
-----------------------------------------------------
-----------------------------------------------------
---------6----------9-------4------6------9------4---
---------6----------9-------4------6------9------4---
---------4----------7-------2------4------7------2---
[ Tab from: http://www.guitartabs.cc/tabs/h/him/sigillum_diaboli_tab.html ]
-------------------------------------------------------------
-------------------------------------------------------------
-------------------------------------------------------------
--------6--------2-------9------8-----6-------2------9------8
--------6--------2-------9------8-----6-------2------9------8
--------4--------0-------7------6-----4-------0------7------6


-----------------------------------------------------------------
----------------------------------------------------------------
----------------------------------------------------------------
------13------12------13--12--13--12---13--12----------
------13------12------13--12--13--12---13--12----------
------11------10------11--10--11--10---11--10----------


 

Thats the gist of it apart from the solo.

Comments