Him - Sigilium Diaboli Chords & Tabs

 

Sigilium Diaboli Chords & Tabs

Him Chords & Tabs

Version: 1 Type: Tab 0 ratings
1 star 2 stars 3 stars 4 stars 5 stars
comments

Sigilium Diaboli Tab

5/2/03
tab for:
him-Sigilium Diaboli

Intro:
------------------------------------------
------------------------------------------
------------------------------------------
------------------------------------------
--6--------9----9----6--------9----9------
--4--------7----6----4--------7----6------

[ Tab from: http://www.guitartabs.cc/tabs/h/him/sigilium_diaboli_tab.html ]
-----------------------------------------------------------
-----------------------------------------------------------
-----------------------------------------------------------
------------------------------2-2-2-2-2--------------------
--4-6-6-6-6-6--4-6-6-6-6-6--4-2-2-2-2-2--999-888-----------
--2-4-4-4-4-4--2-4-4-4-4-4--2-0-0-0-0-0--777-666
Do this 2x

----------------------------------------------
----------------------------------------------
----------------------------------------------
----------------------------------------------
--12-10-12-10--1210-1210-1210-----------------
--10--8-10--8--10-8-10-8-10-8-----------------
Do this 4x

Then go back to the 2nd part for the rest of the song. 
If you listen to it, it will be easier to understand.
Tabbed(Chad Boone)
GIBALARKET!!
Comments