Him - Rip Out The Wings Of A Butterfly Chords & Tabs

 

Rip Out The Wings Of A Butterfly Chords & Tabs

Him Chords & Tabs

Version: 4 Type: Tab 0 ratings
1 star 2 stars 3 stars 4 stars 5 stars
comments

Rip Out The Wings Of A Butterfly Tab

~HIM~
"Wings of a Butterfly"
Darklight
Tabbed by: LDscholar
Email: ldscholar36@netscape.net
Tuning: Drop D

I figured out that my first submission was a half-step flat (sorry!). 
This should be perfect.
ENJOY!

. . . . = Palm Muting
h\p = Hammer-On\Pull-Off
/ = Slide Up
\ = Slide Down

*MODERATE DISTORTION THROUGHOUT*

Intro

Guitar 1                                                     {x4}
E|--------------------------------------------------------------|
B|--------------------------------------------------------------|
G|-11---11---11-9p11h9----9---9---9---9---9---9---9-7h9p7\6-----|
D|----9----9-----------12---7---7---7---7---7---7---------------|
A|--------------------------------------------------------------|
D|--------------------------------------------------------------|

E|------------------|
B|------------------|
G|-7---7---7---6---.|
D|---5---5---5---5-.|
A|------------------|
D|------------------|

Guitar 2 (can be done with one guitar)
>AFTER 1ST TIME<                           
E|--------------|
B|--------------|
G|--------------|
D|-6-6--8-------|
A|-6-6--8-------|
D|-6-6--8-------|

>AFTER 2ND TIME<                           {x2}
|---------------------------------------------|
|---------------------------------------------|
|---------------------------------------------|
|-7--7h9--9-999-4-6-7-7[ Tab from: http://www.guitartabs.cc/tabs/h/him/rip_out_the_wings_of_a_butterfly_tab_ver_4.html ]
   . .. .   . . .  . . . . .  . .
E|--------------------------------|
B|--------------------------------|
G|--------------------------------|
D|-7-99-9---9-7-7--7-9-7-9-11-9-7-|
A|-7-99-9---9-7-7--7-9-7-9-11-9-7-|
D|-7-99-9---9-7-7--7-9-7-9-11-9-7-|

   . . .  .  .   . . .  . . . . .  . .
E|---------------------------------------|
B|---------------------------------------|
G|---------------------------------------|
D|-7-9-9--77-77--9-7-7--7-9-7-9-11-9-7-2-|
A|-7-9-9--77-77--9-7-7--7-9-7-9-11-9-7-2-|
D|-7-9-9--77-77--9-7-7--7-9-7-9-11-9-7-2-|

Chorus Riff

Guitar 1 -> Intro Riff x3

Guitar 2                                   {x3}
|---------------------------------------------|
|---------------------------------------------|
|---------------------------------------------|
|-7--7h9--9-999-4-6-7-7<-----5-4-2-222--------|
|-7--7h9--9-999-4-6-7-7CHORUS RIFF UNTIL FADE OUT<
Comments