Him - Rip Out The Wings Of A Butterfly Chords & Tabs

 

Rip Out The Wings Of A Butterfly Chords & Tabs

Him Chords & Tabs

Version: 3 Type: Tab 0 ratings
1 star 2 stars 3 stars 4 stars 5 stars
comments

Rip Out The Wings Of A Butterfly Tab

-----------------------------------------------------------------------------
			     HIM - Rip out the Wings Of A Butterfly
-----------------------------------------------------------------------------

This song is from HIM's new Album, Dark light said to be released in september!
Tuning: EADGBE (standard)
Tabbed by Calum Sawyer
Email: Moshingreebo@hotmail.co.uk

Intro, do this part x4
e|----------------------------------------------------------------------------|
B|---6---6---6---6h7p6\4---4---4---4---4---4---4---4-4h6p4\2----2---2--1------|
G|----------------------------------------------------------------------------|
D|-----8---8---8--------6---6---6---6---6---6---6---6---------4---4-----------|
A|----------------------------------------------------------------------------|
E|----------------------------------------------------------------------------|


Verse, do this part x2
e|---------------------------------------------------------------|------------|
B|---------------------------------------------------------------|------------|
G|---------------------------------------------------------------|------------|
D|---------------------------------------------------------------|------------|
A|---------------------------------------------------------------|------------|
E|----6-8-8---5h6-5h6----4-6-6--4---4-6-4-6-8-6-4----------------|------------|
    p.m ----------------------------------------------------------------------|

Chorus x2
e|----------------------------------------------------------------------------|
B|----------------------------------------------------------------------------|
G|----------------------------------------------------------------------------|
D|-------888h9p8-6-6666666-654-444-6------------------------------------------|
A|-------888h9p8-6-6666666-654-444-6------------------------------------------|
E|-------888h9p8-6-6666666-654-444-6------------------------------------------|

Verse, do this part x2
e|---------------------------------------------------------------|------------|
B|---------------------------------------------------------------|------------|
G|---------------------------------------------------------------|------------|
D|---------------------------------------------------------------|------------|
A|---------------------------------------------------------------|------------|
E|----6-8-8---5h6-5h6----4-6-6--4---4-6-4-6-8-6-4----------------|------------|
    p.m ----------------------------------------------------------------------|

Chorus x4
guitar 1
e|----------------------------------------------------------------------------|
B|----------------------------------------------------------------------------|
G|-------888h9p8-6-6666666-654-444-6------------------------------------------|
D|-------888h9p8-6-6666666-654-444-6------------------------------------------|
A|-------888h9p8-6-6666666-654-444-6------------------------------------------|
E|----------------------------------------------------------------------------|
[ Tab from: http://www.guitartabs.cc/tabs/h/him/rip_out_the_wings_of_a_butterfly_tab_ver_3.html ]
guitar 2 x2 (this part is played when the main chorus is played at the begining of the 
time guitar 1 plays the chorus, it comes in at the words "soul......")
e|----------------------------------------------------------------------------|
B|---6---6---6---6h7p6\4---4---4---4---4---4---4---4-4h6p4\2----2---2--1------|
G|----------------------------------------------------------------------------|
D|-----8---8---8--------6---6---6---6---6---6---6---6---------4---4-----------|
A|----------------------------------------------------------------------------|
E|----------------------------------------------------------------------------|

Interlude
e|----------------------------------------------------------------------------|
B|----------------------------------------------------------------------------|
G|----------------------------------------------------------------------------|
D|----------------------------------------------------------------------------|
A|------------3-5-3-2-------------3-5-3-1------------3-5-3-2------------------|
E|---3~6-5-3-----------3~~-6-1~~------------3~6-5-3-----------3~~-6-1---------|

Interlude continued... x2
e|----------------------------------------------------------------------------|
B|----------------------------------------------------------------------------|
G|----------------------------------------------------------------------------|
D|---3--6--5--3--1-0-1-3--6--1~~~---------------------------------------------|
A|---3--6--5--3--1-0-1-3--6--1~~~---------------------------------------------|
E|---3--6--5--3--1-0-1-3--6--1~~~---------------------------------------------|

Bridge into Chorus
e|----------------------------------------------------------------------------|
B|----------------------------------------------------------------------------|
G|----------------------------------------------------------------------------|
D|--------------------2-2-----------------------------------------------------|
A|---6---4---8---10---2-2-----------------------------------------------------|
E|--------------------2-2-----------------------------------------------------|

Chorus x6
guitar 1
e|----------------------------------------------------------------------------|
B|----------------------------------------------------------------------------|
G|-------888h9p8-6-6666666-654-444-6------------------------------------------|
D|-------888h9p8-6-6666666-654-444-6------------------------------------------|
A|-------888h9p8-6-6666666-654-444-6------------------------------------------|
E|----------------------------------------------------------------------------|

guitar 2 x6 (played at same time as guitar 1 plays chorus)
e|----------------------------------------------------------------------------|
B|---6---6---6---6h7p6\4---4---4---4---4---4---4---4-4h6p4\2----2---2--1------|
G|----------------------------------------------------------------------------|
D|-----8---8---8--------6---6---6---6---6---6---6---6---------4---4-----------|
A|----------------------------------------------------------------------------|
E|----------------------------------------------------------------------------|
Comments