Him - Right Here In My Arms Chords & Tabs

 

Right Here In My Arms Chords & Tabs

Him Chords & Tabs

Version: 4 Type: Tab 0 ratings
1 star 2 stars 3 stars 4 stars 5 stars
comments

Right Here In My Arms Tab

   
---------------------------------------------------------------
                 Right Here In My Arms - HIM
---------------------------------------------------------------

Tuning:EADGBe

intro
e|------7--------7-----|-----7--------7-----|
B|*--------0--------0--|-------0--------0--*|
G|----5--------5-------|---5--------5-------|x2
D|--7--------7---------|-7--------7---------|
A|*--------------------|-------------------*|
E|---------------------|--------------------|

e|----|-------|---|-----|
B|*---|-------|---|----*|
G|----|-------|---|-----|
D|----|-5-----|---|-----|x2
A|*-7-|-3--5--|-2-|-2--*|
E|--5-|----3--|-0-|-0---|
[ Tab from: http://www.guitartabs.cc/tabs/h/him/right_here_in_my_arms_tab_ver_4.html ]
verse
e|---|-|-|----------|---------|--------|----------------|--------|
B|---|-|-|----------|*--------|--------|----------------|--------|
G|---|-|-|----------|---------|--------|----------------|--------|
D|---|-|-|----------|---------|--------|----------------|--------|
A|-7-|-|-|----------|*77777777|77777777|1010101010101010|55555555|
E|-5-|-|-|pickscrape|-55555555|55555555|-8-8-8-8-8-8-8-8|33333333|
			    pm...................................
e|----------|----------|----------|------------|
B|----------|----------|----------|-----------*|
G|----------|----------|----------|------------|x3
D|----------|----------|----------|------------|
A|-77777777-|-77777777-|-77777777-|--77777777-*|
E|-55555555-|-55555555-|-55555555-|--55555555--|
   .........................................
e|----------|----------|------------------|-----------|
B|----------|----------|------------------|-----------|
G|----------|----------|------------------|-----------|
D|----------|----------|------------------|-----------|
A|-77777777-|-77777777-|-1010101010101010-|-555555555-|
E|-55555555-|-55555555-|--8-8-8-8-8-8-8-8-|-333333333-|
   ..................................................
|----------|----------|----------|----------|
|----------|----------|----------|----------|
|----------|----------|----------|----------|
|----------|----------|----------|----------|
|-77777777-|-22222222-|-33333333-|-33333333-|
|-55555555-|-00000000-|-11111111-|-11111111-|
chorus
e|-----------|-----------|----------|-----------|
B|*----------|-----------|----------|----------*|
G|-----------|-----------|----------|-----------|
D|-----------|-5555------|----------|-----------|
A|*-77777777-|-3333-5555-|-22222222-|-33333333-*|
E|--55555555-|------3333-|-00000000-|-11111111--|

solo(reverse guitar)
e|--------|----------|---------|---|---|---|---|-12|-10|-9-|-----|--14--|
B|--------|----------|---------|---|---|---|---|---|---|---|-10b-|------|
G|--7--6--|--2---420-|-------2/|4--|-6-|-7-|-9b|---|---|---|-----|------|
D|--------|----------|--4-2----|---|---|---|---|---|---|---|-----|------|
A|--------|----------|---------|---|---|---|---|---|---|---|-----|------|
E|--------|----------|---------|---|---|---|---|---|---|---|-----|------|

last chorus
e|-----------|-----------|----------|-----------|
B|*----------|-----------|----------|----------*|
G|-----------|-----------|----------|-----------|
D|-----------|-7777------|----------|-----------|
A|*-99999999-|-5555-7777-|-44444444-|-55555555-*|
E|--77777777-|------5555-|-22222222-|-33333333--|


| /  slide up
| \  slide down
| h  hammer-on
| p  pull-off
| ~  vibrato
| +  harmonic
| x  Mute note
| b  Bend
============================================================================
Comments