Him - Razorblade Kiss Chords & Tabs

 

Razorblade Kiss Chords & Tabs

Him Chords & Tabs

Version: 6 Type: Tab

Razorblade Kiss Tab

Hey this is my second tab.
I know it's not 100% perfect, But it sounds good.
I know it's not supposed to be in standard tuning but this is the way I've transcribed 
for now.

|-----------------------------------------|
|-----------------------------------------|
|-----------------------------------------|
|------------------9-9------9-------------|
|---------------11-----1111---11-7-9------|
|-9-12-9-12-9-9---------------------------|

|---------------------------------------------------------------------|
|---------------------------------------------------------------------|
|-----------------------------13131313131313131313--------------------|
|-9----9-14-11----11----14-11----------------------13-12--------------|
|---11---------11----11-----------------------------------------------|
|---------------------------------------------------------------------|
[ Tab from: http://www.guitartabs.cc/tabs/h/him/razorblade_kiss_tab_ver_6.html ]
|-------------------------------------------------------------|
|-------------------------------------------------------------|
|-13----11----9-------16----14----13--------------------------|
|----11----11---11-11-----------------------------------------|
|------------------------16----16----16-16--------------------|
|-------------------------------------------------------------|

|--------------------------------------------------------------|
|--------------------------------------------------------------|
|-9h11h9h11h9h11h9h119h11h9h11h9h11h9h1111h13h11h13h11h13h11h13
|--------------------------------------------------------------|
|--------------------------------------------------------------|
|--------------------------------------------------------------|

|--------------------------------------------------------------|
|--------------------------------------------------------------|
|-11h13h11h13h11h13h11h13--------------------------------------|
|--------------------------------------------------------------|
|--------------------------------------------------------------|
|--------------------------------------------------------------|

|--------------------------------------------------------------|
|-14--14-14-14-14-14-16--16-16-16-16-17~~~-19~~~---------------|
|--------------------------------------------------------------|
|--------------------------------------------------------------|
|--------------------------------------------------------------|
|--------------------------------------------------------------|