Him - Razorblade Kiss Chords & Tabs

 

Razorblade Kiss Chords & Tabs

Him Chords & Tabs

Version: 4 Type: Tab 0 ratings
1 star 2 stars 3 stars 4 stars 5 stars
comments

Razorblade Kiss Tab

Band: HIM
Song: Razorblade Kiss
Tuning: Standard
TheMutts (halo2k@forerunners.org)



////////////////////////////////////////////////////////////////////////////
E||------------------------|------------------------|------------------------|
B||------------------------|------------------------|------------------------|
G||------------------------|------------------------|------------------------|
D||------------------------|------------------------|------------------------|
A||--0----2--2--0--2--2----|--0----2--2--0--2--2----|--0----2--2--0--2--2----|
E||------------------------|------------------------|------------------------|


                                                                            
------------------------|-------------------------|------------------------|
------------------------|-------------------------|------------------------|
------------------------|-------------------------|------------------------|
------------------------|-------------------------|------------------------|
--0----2--2--0--2--2----|--2----4--4--2--4--4--4--|--2----4--4--2--4--4----|
------------------------|-------------------------|------------------------|


                                                                             
-------------------------|------------------------|-------------------------|
-------------------------|------------------------|-------------------------|
-------1--1-----1--1--1--|-------1--1-----1--1----|-------------------------|
--4----------4-----------|--4----------4----------|-------------------------|
-------------------------|------------------------|--2----4--4--2--4--4--4--|
-------------------------|------------------------|-------------------------|


                                                                            
------------------------|-------------------------|------------------------|
------------------------|-------------------------|------------------------|
------------------------|-------1--1-----1--1--1--|-------1--1-----1--1----|
------------------------|--4----------4-----------|--4----------4----------|
--2----4--4--2--4--4----|-------------------------|------------------------|
------------------------|-------------------------|------------------------|


                                                                            
------------------|------------------|------------------|------------------|
------------------|------------------|------------------|------------------|
------------------|------------------|------------------|------------------|
------------------|------------------|------------------|------------------|
------------------|------------------|------------------|------------------|
------------------|------------------|------------------|------------------|


                                                                            
------------------|------------------|------------------|------------------|
------------------|------------------|------------------|------------------|
------------------|------------------|------------------|------------------|
------------------|------------------|------------------|------------------|
------------------|------------------|------------------|------------------|
------------------|------------------|------------------|------------------|


                                                                        
-----------------------|-----------------------|-----------------------|
-----------------------|-----------------------|--0----0--0------0--0--|
-----------------------|-----------------------|-----------------------|
--4----6--6------6--6--|--4----6--6------6--6--|--2----2--2------2--2--|
--2----4--4------4--4--|--2----4--4------4--4--|-----------------------|
-----------------------|-----------------------|-----------------------|


                                                                        
-----------------------|-----------------------|-----------------------|
-----------------------|-----------------------|-----------------------|
-----------------------|-----------------------|-----------------------|
--4----4--4------4--4--|--4----6--6------6--6--|--4----6--6------6--6--|
--2----2--2------2--2--|--2----4--4------4--4--|--2----4--4------4--4--|
-----------------------|-----------------------|-----------------------|


                                                                    
-----------0--------|--------------------|-------------------------|
--0--------0--------|-----------1--------|-------------------------|
--------------------|-----------0--------|-------------------------|
--2-----------------|--4-----------------|-------------------------|
--------------------|--2-----------------|--2----4--4--2--4--4--4--|
--------------------|--------------------|-------------------------|


                                                                            
------------------------|-------------------------|------------------------|
------------------------|-------------------------|------------------------|
------------------------|-------1--1-----1--1--1--|-------1--1-----1--1----|
------------------------|--4----------4-----------|--4----------4----------|
--2----4--4--2--4--4----|-------------------------|------------------------|
------------------------|-------------------------|------------------------|


                                                                             
-------------------------|------------------------|-------------------------|
-------------------------|------------------------|-------------------------|
-------------------------|------------------------|-------1--1-----1--1--1--|
-------------------------|------------------------|--4----------4-----------|
--2----4--4--2--4--4--4--|--2----4--4--2--4--4----|-------------------------|
-------------------------|------------------------|-------------------------|


                                                               
------------------------|------------------|------------------|
------------------------|------------------|------------------|
-------1--1-----1--1----|------------------|------------------|
--4----------4----------|------------------|------------------|
------------------------|------------------|------------------|
------------------------|------------------|------------------|


                                                                            
------------------|------------------|------------------|------------------|
------------------|------------------|------------------|------------------|
------------------|------------------|------------------|------------------|
------------------|------------------|------------------|------------------|
------------------|------------------|------------------|------------------|
------------------|------------------|------------------|------------------|


                                                              
------------------|------------------|-----------------------|
------------------|------------------|-----------------------|
------------------|------------------|-----------------------|
------------------|------------------|--4----6--6------6--6--|
------------------|------------------|--2----4--4------4--4--|
------------------|------------------|-----------------------|


                                                                        
-----------------------|-----------------------|-----------------------|
-----------------------|--0----0--0------0--0--|-----------------------|
-----------------------|-----------------------|-----------------------|
--4----6--6------6--6--|--2----2--2------2--2--|--4----4--4------4--4--|
--2----4--4------4--4--|-----------------------|--2----2--2------2--2--|
-----------------------|-----------------------|-----------------------|


                                                                         
-----------------------|-----------------------|------------------------|
-----------------------|-----------------------|--0------0--0--0--0--0--|
-----------------------|-----------------------|------------------------|
--4----6--6------6--6--|--4----6--6------6--6--|--2------2--2--2--2--2--|
--2----4--4------4--4--|--2----4--4------4--4--|------------------------|
-----------------------|-----------------------|------------------------|


                                                                        
------------------------|------------------------|-----------19--------|
------------------------|------------------------|-----------19--------|
------------------------|------------------------|-----------19--------|
--4------4--4--4--4--4--|--2------2--2--2--2--2--|--4--------19--------|
--2------2--2--2--2--2--|--0------0--0--0--0--0--|--2--------19--------|
------------------------|------------------------|-----------19--------|


                                                                             
-------------------------|------------------------|-------------------------|
-------------------------|------------------------|-------------------------|
-------------------------|------------------------|-------------------------|
-------------------------|------------------------|-------6--6--4--6--6--6--|
-------------------------|------------------------|--9----------------------|
--7----9--9--7--9--9--9--|--7----9--9--7--9--9----|-------------------------|


                                                                            
------------------------|-------------------------|------------------------|
------------------------|-------------------------|------------------------|
------------------------|-------------------------|------------------------|
--4----6--6--4--6--6----|-------------------------|------------------------|
------------------------|-------4--4--2--4--4--4--|--2----4--4--2--4--4----|
------------------------|--7----------------------|------------------------|


                                                                             
-------------------------|------------------------|-------------------------|
-------------------------|------------------------|-------------------------|
-------1--1-----1--1--1--|-------1--1-----1--1----|-------------------------|
--4----------4-----------|--4----------4----------|-------------------------|
-------------------------|------------------------|--2----4--4--2--4--4--4--|
-------------------------|------------------------|-------------------------|


                                                                            
------------------------|-------------------------|------------------------|
------------------------|-------------------------|------------------------|
------------------------|-------1--1-----1--1--1--|-------1--1-----1--1----|
------------------------|--4----------4-----------|--4----------4----------|
--2----4--4--2--4--4----|-------------------------|------------------------|
------------------------|-------------------------|------------------------|


                                                                             
-------------------------|------------------------|-------------------------|
-------------------------|------------------------|-------------------------|
-------------------------|------------------------|-------1--1-----1--1--1--|
-------------------------|------------------------|--4----------4-----------|
--2----4--4--2--4--4--4--|--2----4--4--2--4--4----|-------------------------|
-------------------------|------------------------|-------------------------|

[ Tab from: http://www.guitartabs.cc/tabs/h/him/razorblade_kiss_tab_ver_4.html ]
                                                                             
------------------------|-------------------------|--0----0--0--0--2--2--2--|
------------------------|--2----2--2--2--4--4--4--|-------------------------|
-------1--1-----1--1----|-------------------------|-------------------------|
--4----------4----------|-------------------------|-------------------------|
------------------------|-------------------------|-------------------------|
------------------------|-------------------------|-------------------------|


                                                                              
-------------------------|--0----0--0--0--2--2--2--|----------------0--0--0--|
--2----2--2--2--4--4--4--|-------------------------|--4----4--4--4-----------|
-------------------------|-------------------------|-------------------------|
-------------------------|-------------------------|-------------------------|
-------------------------|-------------------------|-------------------------|
-------------------------|-------------------------|-------------------------|


                                                                              
--2----2--2--2--4--4--4--|----------------0--0--0--|--2----2--2--2--4--4--4--|
-------------------------|--4----4--4--4-----------|-------------------------|
-------------------------|-------------------------|----------------------4--|
-------------------------|-------------------------|-------------------------|
-------------------------|-------------------------|-------------------------|
-------------------------|-------------------------|-------------------------|


                                                      
-------------------------|---------------------------|
-------------------------|-------0--0------0---------|
-------------------------|--1----------1-1----1------|
---------2--2-2-2-----2--|----------------------2-4--|
------4------------4-----|---------------------------|
-------------------------|---------------------------|


                                                    
--------------------------|------------------------|
-------0--0------0--------|---------------0-----0--|
--1----------1-1----1-----|-------------1----1-----|
-----------------------2--|--4--------4------------|
--------------------------|------------------------|
--------------------------|------------------------|


                                                    
--12----------------------12--|--------------------|
------------------------------|--------------------|
------------------------------|--------------------|
--------11---------9----------|--11----------------|
--------------9-11----11------|--------------------|
------------------------------|--------------------|


                                                                              
----------------------------|--------0--------------|--4-------2-----0-------|
--9-9--9-9--9-9--9-9--9-9---|--7-9-7---4------------|-------2-----2-----2----|
----------------------------|-----------------------|------------------------|
----------------------------|-----------------------|------------------------|
----------------------------|-----------------------|------------------------|
----------------------------|-----------------------|------------------------|


                                                                    
--7-------4--------0-----|--0--2-0-2-0-2-0-2-0-2-0-2-0-2-0-2-0-2-0-|
----------------7-----4--|-----------------------------------------|
-------6-----6-----------|-----------------------------------------|
-------------------------|-----------------------------------------|
-------------------------|-----------------------------------------|
-------------------------|-----------------------------------------|


                                                                        
--2--4-2-4-2-4-2-4-2-4-2-4-2-4-2-4-2-4-2-|--9--9--9-9-9--9-9-9--9-9-9--|
-----------------------------------------|-----------------------------|
-----------------------------------------|-----------------------------|
-----------------------------------------|-----------------------------|
-----------------------------------------|-----------------------------|
-----------------------------------------|-----------------------------|


                                         
--11--11--11-11-11--11-11-11--11-11-11--|
----------------------------------------|
----------------------------------------|
----------------------------------------|
----------------------------------------|
----------------------------------------|


                                                              
--12--12--12-12-12--12-12-12--12-12-12--|--14----------------|
----------------------------------------|--------------------|
----------------------------------------|--------------------|
----------------------------------------|--------------------|
----------------------------------------|--------------------|
----------------------------------------|--------------------|


                                                                            
------------------|------------------|------------------|------------------|
------------------|------------------|------------------|------------------|
------------------|------------------|------------------|------------------|
------------------|------------------|------------------|------------------|
------------------|------------------|------------------|------------------|
------------------|------------------|------------------|------------------|


                                                                            
------------------|------------------|------------------|------------------|
------------------|------------------|------------------|------------------|
------------------|------------------|------------------|------------------|
------------------|------------------|------------------|------------------|
------------------|------------------|------------------|------------------|
------------------|------------------|------------------|------------------|


                                                                            
------------------|------------------|------------------|------------------|
------------------|------------------|------------------|------------------|
------------------|------------------|------------------|------------------|
------------------|------------------|------------------|------------------|
------------------|------------------|------------------|------------------|
------------------|------------------|------------------|------------------|


                                                                            
------------------|------------------|------------------|------------------|
------------------|------------------|------------------|------------------|
------------------|------------------|------------------|------------------|
------------------|------------------|------------------|------------------|
------------------|------------------|------------------|------------------|
------------------|------------------|------------------|------------------|


                                                      
--------------------------|--------------------------|
--------------------------|--0--0--0--0--0--0--0--0--|
--2--2--2--2--2--2--2--2--|--------------------------|
--2--2--2--2--2--2--2--2--|--4--4--4--4--4--4--4--4--|
--0--0--0--0--0--0--0--0--|--2--2--2--2--2--2--2--2--|
--------------------------|--------------------------|


                                                              
--------------------------|----------------------------------|
--------------------------|--0-0-0-0-0-0-0-0-0-0-0-0-0-0-0-0-|
--2--2--2--2--2--2--2--2--|----------------------------------|
--2--2--2--2--2--2--2--2--|--4-4-4-4-4-4-4-4-4-4-4-4-4-4-4-4-|
--0--0--0--0--0--0--0--0--|--2-2-2-2-2-2-2-2-2-2-2-2-2-2-2-2-|
--------------------------|----------------------------------|


                                                                             
-------------------------|------------------------|-------------------------|
-------------------------|------------------------|-------------------------|
-------------------------|------------------------|-------1--1-----1--1--1--|
-------------------------|------------------------|--4----------4-----------|
--2----4--4--2--4--4--4--|--2----4--4--2--4--4----|-------------------------|
-------------------------|------------------------|-------------------------|


                                                                            
------------------------|-------------------------|------------------------|
------------------------|-------------------------|------------------------|
-------1--1-----1--1----|-------------------------|------------------------|
--4----------4----------|-------------------------|------------------------|
------------------------|--2----4--4--2--4--4--4--|--2----4--4--2--4--4----|
------------------------|-------------------------|------------------------|


                                                                             
-------------------------|------------------------|-------------------------|
-------------------------|------------------------|-------------------------|
-------1--1-----1--1--1--|-------1--1-----1--1----|-------------------------|
--4----------4-----------|--4----------4----------|-------------------------|
-------------------------|------------------------|--2----4--4--2--4--4--4--|
-------------------------|------------------------|-------------------------|


                                                                            
------------------------|-------------------------|------------------------|
------------------------|-------------------------|------------------------|
------------------------|-------1--1-----1--1--1--|-------1--1-----1--1----|
------------------------|--4----------4-----------|--4----------4----------|
--2----4--4--2--4--4----|-------------------------|------------------------|
------------------------|-------------------------|------------------------|


                                                                             
-------------------------|------------------------|-------------------------|
-------------------------|------------------------|-------------------------|
-------------------------|------------------------|-------1--1-----1--1--1--|
-------------------------|------------------------|--4----------4-----------|
--2----4--4--2--4--4--4--|--2----4--4--2--4--4----|-------------------------|
-------------------------|------------------------|-------------------------|


                                                                             
------------------------|-------------------------|-------------------------|
------------------------|-------------------------|-------------------------|
-------1--1-----1--1----|-------------------------|-------------------------|
--4----------4----------|--4----6--6--4--6--6--6--|--4----6--6--4--6--6--6--|
------------------------|--2----4--4--2--4--4--4--|--2----4--4--2--4--4--4--|
------------------------|-------------------------|-------------------------|


                                                          
-------------------------|-------------------------|----||
-------------------------|-------------------------|----||
-------------------------|-------------------------|----||
--4----6--6--4--6--6--6--|--4----6--6--4--6--6--4--|----||
--2----4--4--2--4--4--4--|--2----4--4--2--4--4--2--|----||
-------------------------|-------------------------|----||




Orinally tabbed by: aceskater2003
Submitted by: TheMutts
Comments