Him - Razorblade Kiss Chords & Tabs

 

Razorblade Kiss Chords & Tabs

Him Chords & Tabs

Version: 2 Type: Tab 0 ratings
1 star 2 stars 3 stars 4 stars 5 stars
comments

Razorblade Kiss Tab

H.I.M.-"Razorblade Kiss" (solo)

s= slide
p= pull off
h= hammer on

------------------------------------------------------------------------------------
------------------------------------------------------------------------------------
------------------------------------------------------------------------------10----
---------------------------10----10----------10-10-------------------10----10----12-
----------8-8-8----8-10s12----12----12s10s12-------12s10-8h10--10s12----12----------
--s10--10-------10------------------------------------------------------------------

--------------------------------------------------------------------
--------------------------------------------------------------------
-------------10------12b(14)(14)-(14)(14)-(14)(14)-(14)(14)-12r10s9-
-------10-------12--------------------------------------------------
-10h12----12--------------------------------------------------------
--------------------------------------------------------------------
[ Tab from: http://www.guitartabs.cc/tabs/h/him/razorblade_kiss_tab_ver_2.html ]
-------------------------------------------------------------------
-10----------------13-----11----10---------------------------------
-------12---10---------------------12---10h12p10h12p10h12p10h12p10-
-----12--12----12------12----12------------------------------------
-------------------------------------------------------------------
-------------------------------------------------------------------

-----------------------------10-------10--10--10--10--10--10---12-------12--12--12-
-----------------------------13b(15)-(15)(15)(15)(15)(15)(15)--15b(17)-(17)(17)(17)
12h14p12h14p12h14p12h14p12---------------------------------------------------------
-----------------------------------------------------------------------------------
-----------------------------------------------------------------------------------
-----------------------------------------------------------------------------------

-12--12--12---13-------13--13--13--13--13--13---15-------15--15--15--15--15--15---15-
(17)(17)(17)--16b(18)-(18)(18)(18)(18)(18)(18)--18b(20)-(20)(20)(20)(20)(20)(20)-(20)
-------------------------------------------------------------------------------------
-------------------------------------------------------------------------------------
-------------------------------------------------------------------------------------
-------------------------------------------------------------------------------------
Comments