Him - Poison Girl Chords & Tabs

 

Poison Girl Chords & Tabs

Him Chords & Tabs

Version: 2 Type: Tab 0 ratings
1 star 2 stars 3 stars 4 stars 5 stars
comments

Poison Girl Tab

HIM - Poison Girl
Tabbed By: Dylan Givens
EMail: dylangivens@lycos.com
Composed by:  Ville Valo
Tabulated by:  Luke "Lazy Sky" Vai  & The Duke


    Intro
E||---2----2----2--2--2--2--|----2----2--2--2--2--2---||
B||---2----2----2--2--2--2--|----2----2--2--2--2--2---||
G||*--2----2----2--2--2--2--|----2----2--2--2--2--2--*||  Clean 
D||*--4----4----2--4--2--4--|----4----2--4--2--4--2--*||  Guitar
A||---4----4----2--4--2--4--|----4----2--4--2--4--2---||
E||---2----2----2--2--2--2--|----2----2--2--2--2--2---||


                                                                           
|--2----2----2--2--2--2--|----2----2--2--2--2--2--|
|--3----3----2--3--2--3--|----3----2--3--2--3--2--|
|--4----4----4--4--4--4--|----4----4--4--4--4--4--|
|--4----4----4--4--4--4--|----4----4--4--4--4--4--|
|--2----2----2--2--2--2--|----2----2--2--2--2--2--|
|--2----2----2--2--2--2--|----2----2--2--2--2--2--|


                          			SLIDE
|-------------------------|------------------------||
|--7----7----7------------|------------------------||
|--7----7----7--6--6--6---|----6----6--6--6--6--6--||
|--7----7----7--7--7--7---|----7----7--7--7--7--7--||
|--5----5----5--5--5--7---|----7----7--7--7--7--7--||
|---------------------5---|----5----5--5--5--5--5--||


  CHORUS                                                                                
|-----------------------|-----------------------||
|-----------------------|-----------------------||
|*----------------------|----------------------*|| Distortion guitar
|*--4---4---2--4--2--4--|---4---2--4--2--4--2--*||
|---4---4---2--4--2--4--|---4---2--4--2--4--2---||
|---2---2---2--2--2--2--|---2---2--2--2--2--2---||


                                                                           
|----------------------|----------------------|--------------------|
|--3---3---2--3--2--3--|---3---2--3--2--3--2--|--------------------|
|--4---4---4--4--4--4--|---4---4--4--4--4--4--|--7--7--7--6--6--6--|
|--4---4---4--4--4--4--|---4---4--4--4--4--4--|--7--7--7--7--7--7--|
|--2---2---2--2--2--2--|---2---2--2--2--2--2--|--5--5--5--5--5--7--|
|----------------------|----------------------|-----------------5--|

				  Verse1
                          KEYBOARD                    
|------------------------|-----|----|----|----|----|----|
|------------------------|-----|----|----|----|----|----|
|----6-------------------|-----|----|----|----|----|----|
|----7----7--7--7--7--7--|--4--|----|----|----|----|----|
|----7----7--7--7--7--7--|--4--|----|----|----|----|----|
|----5----5--5--5--5--5--|--2--|----|----|----|----|----|


   RIFF                                                                   
|------------------------|-----------------------|
|------------------------|-----------------------|
|--------4~-2~---1~------|-----------------------|
|--4~-4~--------------4~-|----2~-----------------|
|------------------------|---------4~---2--------|
|------------------------|-----------------5--4--|


  Verse2 
|--------|-------|-------|-------|-------|--------|
|--------|-------|-------|-------|-------|--------|
|--------|-------|-------|-------|-------|--------|
|--4-----|-------|-------|-------|-------|--------|
|--4-----|-------|-------|-------|-------|--------|
|--2-----|-------|-------|-------|-------|--------|


                                                       
|-------------------------|-------------------------|
|-------------------------|-------------------------|
|-------------------------|-------------------------|
|--7----7--7--7--7--7--7--|--9----9--9--9--9--9--9--|
|--7----7--7--7--7--7--7--|--9----9--9--9--9--9--9--|
|--5----5--5--5--5--5--5--|--7----7--7--7--7--7--7--|

  Chorus
  CHORUS                                                                              
|---------------------|---------------------||--------------------|
|---------------------|---------------------||--3--3--2--3--2--3--|
|*--------------------|--------------------*||--4--4--4--4--4--4--|
|*--4--4--2--4--2--4--|--4--2--4--2--4--2--*||--4--4--4--4--4--4--|
|---4--4--2--4--2--4--|--4--2--4--2--4--2---||--2--2--2--2--2--2--|
|---2--2--2--2--2--2--|--2--2--2--2--2--2---||--------------------|


                                                                           
|--------------------|---------------------|---------------------|
|--3--2--3--2--3--2--|---------------------|---------------------|
|--4--4--4--4--4--4--|--7--7---7--6--6--6--|--6------------------|
|--4--4--4--4--4--4--|--7--7---7--7--7--7--|--7---7--7--7--7--7--|
|--2--2--2--2--2--2--|--5--5---5--5--5--7--|--7---7--7--7--7--7--|
|--------------------|------------------5--|--5---5--5--5--5--5--|


  CHORUS                                                                              
|---------------------|---------------------||--------------------|
|---------------------|---------------------||--3--3--2--3--2--3--|
|*--------------------|--------------------*||--4--4--4--4--4--4--|
|*--4--4--2--4--2--4--|--4--2--4--2--4--2--*||--4--4--4--4--4--4--|
|---4--4--2--4--2--4--|--4--2--4--2--4--2---||--2--2--2--2--2--2--|
|---2--2--2--2--2--2--|--2--2--2--2--2--2---||--------------------|


                                                                           
|--------------------|--------------------|---------------------|
|--3--2--3--2--3--2--|--------------------|---------------------|
|--4--4--4--4--4--4--|--7--7--7--6--6--6--|--6------------------|
|--4--4--4--4--4--4--|--7--7--7--7--7--7--|--7---7--7--7--7--7--|
|--2--2--2--2--2--2--|--5--5--5--5--5--7--|--7---7--7--7--7--7--|
|--------------------|-----------------5--|--5---5--5--5--5--5--|

 Verse3
 KEYBOARD                   
|-------|-----|-----|------|------|------|
|-------|-----|-----|------|------|------|
|-------|-----|-----|------|------|------|
|--4----|-----|-----|------|------|------|
|--4----|-----|-----|------|------|------|
|--2----|-----|-----|------|------|------|  RIFF                                                                       
|------------------------|-----------------------|
|------------------------|-----------------------|
|--------4~-2~---1~------|-----------------------|
|--4~-4~--------------4~-|----2~-----------------|
|------------------------|---------4~---2--------|
|------------------------|-----------------5--4--|

  Verse4
|--------|-------|-------|-------|-------|--------|
|--------|-------|-------|-------|-------|--------|
|--------|-------|-------|-------|-------|--------|
|--4-----|-------|-------|-------|-------|--------|
|--4-----|-------|-------|-------|-------|--------|
|--2-----|-------|-------|-------|-------|--------|


                                                       
|-------------------------|-------------------------|
|-------------------------|-------------------------|
|-------------------------|-------------------------|
|--7----7--7--7--7--7--7--|--9----9--9--9--9--9--9--|
|--7----7--7--7--7--7--7--|--9----9--9--9--9--9--9--|
|--5----5--5--5--5--5--5--|--7----7--7--7--7--7--7--|

  Chorus
  CHORUS                                                                              
|---------------------|---------------------||--------------------|
|---------------------|---------------------||--3--3--2--3--2--3--|
|*--------------------|--------------------*||--4--4--4--4--4--4--|
|*--4--4--2--4--2--4--|--4--2--4--2--4--2--*||--4--4--4--4--4--4--|
|---4--4--2--4--2--4--|--4--2--4--2--4--2---||--2--2--2--2--2--2--|
|---2--2--2--2--2--2--|--2--2--2--2--2--2---||--------------------|


                                                                           
|--------------------|---------------------|---------------------|
|--3--2--3--2--3--2--|---------------------|---------------------|
|--4--4--4--4--4--4--|--7--7---7--6--6--6--|--6------------------|
|--4--4--4--4--4--4--|--7--7---7--7--7--7--|--7---7--7--7--7--7--|
|--2--2--2--2--2--2--|--5--5---5--5--5--7--|--7---7--7--7--7--7--|
|--------------------|------------------5--|--5---5--5--5--5--5--|

[ Tab from: http://www.guitartabs.cc/tabs/h/him/poison_girl_tab_ver_2.html ]
  CHORUS                                                                              
|---------------------|---------------------||--------------------|
|---------------------|---------------------||--3--3--2--3--2--3--|
|*--------------------|--------------------*||--4--4--4--4--4--4--|
|*--4--4--2--4--2--4--|--4--2--4--2--4--2--*||--4--4--4--4--4--4--|
|---4--4--2--4--2--4--|--4--2--4--2--4--2---||--2--2--2--2--2--2--|
|---2--2--2--2--2--2--|--2--2--2--2--2--2---||--------------------|


                                                                           
|--------------------|--------------------|---------------------|
|--3--2--3--2--3--2--|--------------------|---------------------|
|--4--4--4--4--4--4--|--7--7--7--6--6--6--|--6------------------|
|--4--4--4--4--4--4--|--7--7--7--7--7--7--|--7---7--7--7--7--7--|
|--2--2--2--2--2--2--|--5--5--5--5--5--7--|--7---7--7--7--7--7--|
|--------------------|-----------------5--|--5---5--5--5--5--5--|


  CHORUS                                                                            
|---------------------|--------------------||---------------------|
|---------------------|--------------------||---------------------|
|*--------------------|-------------------*||---------------------|
|*--------------------|-------------------*||---------------------|
|-------4----2--------|--------------------||--2--5----4--2-------|
|---2-----------5--4--|--2--0----0--2--0---||------------------5--|


                                                                        
|-------------------|----------------------|----------------------|
|-------------------|----------------------|----------------------|
|-------------------|----------------------|----------------------|
|-------------------|----------------------|----------------------|
|-------------------|----------------------|----------------------|
|--2---0---0--2--5--|--0---0---2--5--2--0--|---0---0--0--0--0--0--|


 Bridge                    
|-------|--------|----------|-------------|
|-------|--------|----------|-------------|
|-------|--------|----------|-------------|
|--4----|--------|----------|-------------|
|--4----|--------|----------|-------------|
|--2----|--------|----------|-------------|


  Chorus End 
  CHORUS                                                                              
|---------------------|---------------------||--------------------|
|---------------------|---------------------||--3--3--2--3--2--3--|
|*--------------------|--------------------*||--4--4--4--4--4--4--|
|*--4--4--2--4--2--4--|--4--2--4--2--4--2--*||--4--4--4--4--4--4--|
|---4--4--2--4--2--4--|--4--2--4--2--4--2---||--2--2--2--2--2--2--|
|---2--2--2--2--2--2--|--2--2--2--2--2--2---||--------------------|


                                                                           
|--------------------|---------------------|---------------------|
|--3--2--3--2--3--2--|---------------------|---------------------|
|--4--4--4--4--4--4--|--7--7---7--6--6--6--|--6------------------|
|--4--4--4--4--4--4--|--7--7---7--7--7--7--|--7---7--7--7--7--7--|
|--2--2--2--2--2--2--|--5--5---5--5--5--7--|--7---7--7--7--7--7--|
|--------------------|------------------5--|--5---5--5--5--5--5--|


  CHORUS                                                                              
|---------------------|---------------------||--------------------|
|---------------------|---------------------||--3--3--2--3--2--3--|
|*--------------------|--------------------*||--4--4--4--4--4--4--|
|*--4--4--2--4--2--4--|--4--2--4--2--4--2--*||--4--4--4--4--4--4--|
|---4--4--2--4--2--4--|--4--2--4--2--4--2---||--2--2--2--2--2--2--|
|---2--2--2--2--2--2--|--2--2--2--2--2--2---||--------------------|


                                                                           
|--------------------|--------------------|---------------------|
|--3--2--3--2--3--2--|--------------------|---------------------|
|--4--4--4--4--4--4--|--7--7--7--6--6--6--|--6------------------|
|--4--4--4--4--4--4--|--7--7--7--7--7--7--|--7---7--7--7--7--7--|
|--2--2--2--2--2--2--|--5--5--5--5--5--7--|--7---7--7--7--7--7--|
|--------------------|-----------------5--|--5---5--5--5--5--5--|


  CHORUS                                                        
|--------------------------|--------------------------|
|--------------------------|--------------------------|
|--------------------------|--------------------------|
|--4--4--4--4--4--4--4--4--|--4--4--4--4--4--4--4--4--|
|--4--4--4--4--4--4--4--4--|--4--4--4--4--4--4--4--4--|
|--2--2--2--2--2--2--2--2--|--2--2--2--2--2--2--2--2--|


                                                      
|--------------------------|--------------------------|
|--------------------------|--------------------------|
|--------------------------|--------------6--6--6--6--|
|--4--4--4--4--6--6--6--6--|--7--7--7--7--6--6--6--6--|
|--4--4--4--4--6--6--6--6--|--7--7--7--7--4--4--4--4--|
|--2--2--2--2--4--4--4--4--|--5--5--5--5--------------|


                                                                          
|--------------------------|--------------------------|------|
|--------------------------|--------------------------|------|
|--4--4--4--4--4--4--4--4--|--4--4--4--4--4--4--4--4--|--7---|
|--4--4--4--4--4--4--4--4--|--4--4--4--4--4--4--4--4--|--7---|
|--2--2--2--2--2--2--2--2--|--2--2--2--2--2--2--2--2--|--5---|
|--------------------------|--------------------------|------|


                                          
|--------------------|-------------------||
|--------------------|-------------------||
|--------------------|-------------------||
|--7--------9--------|--4----------------||
|--7--------9--------|--4----------------||
|--5--------7--------|--2----------------||SLIDE
(distortion guitar)

E||---------------|
B||---------------|
G||---------------|
D||---12\---12/---|
A||---12\---12/---|
E||---12\---12/---|


CHORUS
(Keyboard)

|-9-2-9-2-9-2-9-2-|
|-2---------------|
|-----------------|
|-----------------|
|-----------------|
|-----------------|

|-10-2-10-2-10-2-10-2-|-12-2-12-2-12-2-12-2-|-10-2-10-2-10-2-10-2-|
|---------------------|---------------------|---------------------|
|---------------------|---------------------|---------------------|
|---------------------|---------------------|---------------------|
|---------------------|---------------------|---------------------|
|---------------------|---------------------|---------------------|

|-9-7-9-7-9-7-9-7-|-10-7-10-7-10-7-10-7-|-12-5-12-5-12-5-12-5-|
|-3---------------|---------------------|---------------------|
|-----------------|---------------------|---------------------|
|-----------------|---------------------|---------------------|
|-----------------|---------------------|---------------------|
|-----------------|---------------------|---------------------|

|-1-0-5-10-5-9-5-9-5-|
|--------------------|
|--------------------|
|--------------------|
|--------------------|
|--------------------|


KEYBOARD

|-9-|------|------|------|------|------|------|------|
|-2-|------|------|------|------|------|------|------|
|---|------|------|------|------|------|------|------|
|---|------|------|------|------|------|------|------|
|---|------|------|------|------|------|------|------|
|---|------|------|------|------|------|------|------|

|-9-|------|------|------|------|------|------|------|
|-2-|------|------|------|------|------|------|------|
|---|------|------|------|------|------|------|------|
|---|------|------|------|------|------|------|------|
|---|------|------|------|------|------|------|------|
|---|------|------|------|------|------|------|------|


RIFF
                                                                         
E||--------7~-5~---4~---2~-|----0~-----------------|-------------||
B||--7~-7~-----------------|---------2~---0--------|-------------||
G||------------------------|-----------------2--1--|-------------||
D||------------------------|-----------------------|--4~---------||
A||------------------------|-----------------------|-------------||
E||------------------------|-----------------------|-------------||
Comments