Him - Poison Girl Chords & Tabs

 

Poison Girl Chords & Tabs

Him Chords & Tabs

Version: 2 Type: Bass Tab 0 ratings
1 star 2 stars 3 stars 4 stars 5 stars
comments

Poison Girl Bass Tab

Poison Girl - HIM |
------------------
 
TAB: by Big M
e-mail: Big_Mx@gmx.de
 
Main Riff
G|-----------------|-----------------|-----------------|-----------------|
D|-----------------|-----------------|-----------------|-----------------|
A|-4---4---2-4-2-4-|---4---2---4-2-4-|-4---4---2-4-2-4-|---4---2---4-2-4-|
E|-----------------|-----------------|-----------------|-----------------|
 
G|-----------------|-----------------|-----------------|-------------------|
D|-----------------|-----------------|-7---7---7-7-7---|-9---9-9-9---11-11-|
A|-9---9---7-9-7-9-|---9---7---9-7-9-|-----------------|-------------------|
E|-----------------|-----------------|-----------------|-------------------|
 
Verse
G|-----------------|-----------------|-----------------|-----------------|
D|-----------------|-----------------|-----------------|-----------------|
A|-----------------|-4---4-4-7---7-7-|-9---9-9---9-9-9-|-7---7-7-4---4-4-|
E|-2---2-2---2-2-2-|-----------------|-----------------|-----------------|
 
G|-----------------|-----------------|-----------------|-----------------|
D|-----------------|-----------------|-----------------|-----------------|
A|-5---5-5-5---5-5-|-5---5-5-5---5-5-|-----------------|-----------------|
E|-----------------|-----------------|-2-2-----------2-|---2-------------|
 
G|-----------------|-----------------|-----------------|-----------------|
D|-----------------|-----------------|-----------------|-----------------|
A|-----------------|-4---4-4-7---7-7-|-9---9-9---9-9-9-|-7---7-7-4---4-4-|
E|-2---2-2---2-2-2-|-----------------|-----------------|-----------------|
 
G|-----------------|-----------------|-----------------|------------------|
D|-----------------|-----------------|-----------------|------------------|
A|-5---5-5-5---5-5-|-5---5-5-5---5-5-|-7-7-7-7-7-7-7-7-|-9-9-9-9-9-9-9-9\-|
E|-----------------|-----------------|-----------------|------------------|


[ Tab from: http://www.guitartabs.cc/tabs/h/him/poison_girl_btab_ver_2.html ]
Comments