Him - Love You Like I Do Chords & Tabs

 

Love You Like I Do Chords & Tabs

Him Chords & Tabs

Version: 1 Type: Bass Tab 0 ratings
1 star 2 stars 3 stars 4 stars 5 stars
comments

Love You Like I Do Bass Tab

HIM: Love You Like I Do (from „Deep Shadows & Brilliant Highlights“) 

Begins with this little Riff: 

G|----------------|----------------|----------------|----------------| 
D|----------------|----------------|----------------|----------------| 
A|----------0-1---|----------------|----------0-1---|----------------| 
E|3-------------1-|----------------|3-------------1-|----------------| 2x 

Then the Verse: 

G|----------------|----------------|----------------|----------------|
D|----------------|----------------|----------------|----------------|
A|----------------|----------------|----------0-1---|----------------|
E|3/15------------|-----------15/3-|3-------------1-|----------------| 
[ Tab from: http://www.guitartabs.cc/tabs/h/him/love_you_like_i_do_btab.html ]
G|----------------|----------------|----------------|----------------|
D|----------------|----------------|----------------|----------------|
A|----------------|----------------|----------0-1---|----1---3---5---|
E|3/15------------|-----------15/3-|3-------------1-|----------------| 

Then the Chorus: 

G|----------------|----------------|----------------|----------------|
D|----------------|----------------|----------------|----------------|
A|6---6---6---6---|--------3---5---|6---6---6---6---|----------------| 
E|----------------|6---6-----------|----------------|6---6---5---5---|  

G|----------------|----------------|----------------|----------------|
D|----------------|----------------|----------------|----------------|
A|6---6---6---6---|--------5---5---|6---6---6---6---|----------------| 
E|----------------|6---6-----------|----------------|1---1---1---1---|  

Little Riff 1x
Verse 1x 
Chorus 1x 
Verse (Rest the first 2 measures) 1x 
Chorus 2x 
Repeat the little Riff till end (you gotta rest, sometimes there’s a break) 


Important Note: 

The chorus is actually not played in 1/4 notes but Mige does variations every
time so I did just write which notes you gotta play. 
Just listen to it you’ll find a good rhythm.
Comments