Him - Lose You Tonight Chords & Tabs

 

Lose You Tonight Chords & Tabs

Him Chords & Tabs

Version: 5 Type: Tab

Lose You Tonight Tab

I think this is the right way to play the song,not sure if the verse is correct tho.But 
still this is %100 correct.Here you go and enjoy it!
tabbed by TC Bernard is my name.

Intro:
|----------------------------|------------------------------|
|----------------------------|------------------------------|
|----------------------------|------------------------------|
|----------------------------|------------------------------|
|----------------------------|------------------------------|
|-4-2-4-2-4-2-4/2h4-2-4-2-4--|-6-4-6-4-6-4-64-6-4-6-4-6-----|
    play this 4x               play this 4x
play the intro again but in Palm Mute.(only the first measure)
[ Tab from: http://www.guitartabs.cc/tabs/h/him/lose_you_tonight_tab_ver_5.html ]
Verse:
|----------------|
|----------------|
|----------------|
|----------------|4x  on the final time,dont hit last 2.(3 4)
|--4--6--3--4----|                                       1 2
|--2--4--1--2----|

play intro-then with p/m
then play the verse

Solo:
|--------------------------------------------------------------------------|
|--------------------------------------------------------------------------|
|------------------------------------------------15--15--17--18-17--13-----|
|--16--16--15--13--15--13------/15--15-13-11-13------------------------15--|
|-------------------------13-----------------------------------------------|
|--------------------------------------------------------------------------|

|---------------------------------|
|-------18--16--14--16------------|
|---18----------------------------|
|---18----------------------------|
|---------------------------------|
|---------------------------------|

play the verse-8x
then play the intro


And there it is,one of the best songs from the kickass band,HIM.