Him - Lose You Tonight Chords & Tabs

 

Lose You Tonight Chords & Tabs

Him Chords & Tabs

Version: 3 Type: Tab 0 ratings
1 star 2 stars 3 stars 4 stars 5 stars
comments

Lose You Tonight Tab

band: H.I.M
song: lose you tonignt

this is a really good and easy song...i hope you like...if theres any probs just write 
in the comment box

tuning: drop d
low to high(dadgbe)

intro
------------------------------------|
------------------------------------|
------------------------------------|
------------------------------------|*4
------------------------------------|
-----6---4-6---4-6-4-6---4-6--4-6---|

verse
------------------------------------|
------------------------------------|
------------------------------------|*7
------------------------------------|
------------------------------------|
-----8---6-8---6-8-6-8---6-8--6-8---|
[ Tab from: http://www.guitartabs.cc/tabs/h/him/lose_you_tonight_tab_ver_3.html ]
chorus
------------|
------------|
------------|
4--6--3--4--|*3
4--6--3--4--|
4--6--3--4--|

------------|
------------|
------------|
4--6--------|
4--6--------|
4--6--------|

then verse again
an then chorus again

solo:
------------------------------------|
------------------------------------|
-/11--11-10-8-10-6-3---/10-10-8-6-8-|
------------------------------------|
------------------------------------|
------------------------------------|

--------------------13--13-11-9-11-|
-11--11-13-14-9-6---11-------------|
-10-----------------11-------------|
-11--------------------------------|
-----------------------------------|
-----------------------------------|

then chorus twice
and then verse

well thats it....hade fun?
Comments