Him - Join Me Chords & Tabs

 

Join Me Chords & Tabs

Him Chords & Tabs

Version: 2 Type: Tab 0 ratings
1 star 2 stars 3 stars 4 stars 5 stars
comments

Join Me Tab

   
##################################################################################
# This file is the author's own work and represents their interpretation of the  #
# song. You may only use this file for private study, scholarship, or research.  #
##################################################################################

Artist: Him
Title: Join Me
Album: Razorblade Romance
transcribed by: teddy   teddypeak@wp.pl     

[ Tab from: http://www.guitartabs.cc/tabs/h/him/join_me_tab_ver_2.html ]
INTRO:(piano part transcripted on guitar is played also in chorus)
-------
E|-------------|------------|------------|--------------|
B|---------9---|--------5---|------------|--------------|
G|------11-----|------8-----|--------4---|--------------|
D|----9--------|----6-------|------8-----|--------------| (x3)
A|--7----------|--4---------|----6-------|--------------|
E|-------------|------------|--4---------|--------------|
  E             C#m          G#m          G#m

E|-------------|-------------|
B|---------9---|----------11-|
G|------11-----|-------13----|
D|----9--------|----11-------|
A|--7----------|--9----------|
E|-------------|-------------|
  E             F#


VERSE

CHORUS

VERSE

CHORUS

BRIDGE

CHORUS


EADGBe
E   022100 or E5  022XXX
C#m X46654 or C#5 X466XX
G#m 355333 or G#5 466XXX
F#  244322
Ebm X68876

transcribed by: teddy   teddypeak@wp.pl     

Comments