Him - It's All Tears(unplugged) Chords & Tabs

 

It's All Tears(unplugged) Chords & Tabs

Him Chords & Tabs

Version: 1 Type: Tab 0 ratings
1 star 2 stars 3 stars 4 stars 5 stars
comments

It's All Tears(unplugged) Tab

##################################################################################
# This file is the author's own work and represents their interpretation of the  #
# song. You may only use this file for private study, scholarship, or research.  #
##################################################################################

Artist: Him
Song: It's All Tears(unplugged)
Album: Join Me
Tabbed by: Filip Gabriel

    Note: this song  is played on an acoustic guitar with nylon chords
    When i heard the song i was compllety mad about it, i think it is great, so i went on the Net to find some tabs but i didn't find anything so i decided to make one of my own despite my ears aren't so good. This is the firt tab i wrote so there may be many mistackes.
Questions, corrections or improvements are welcome !
Just send me an E-Mail (gabryel@email.ro)

h-hammer

[Intro] 
E|---------------------|  play it 4 times
B|---------------------|
G|---------------------|
D|---------------------|
A|---------------------|
E|--0-----2---3---5---|
[ Tab from: http://www.guitartabs.cc/tabs/h/him/its_all_tearsunplugged_tab.html ]
[Chorus]
E|--------------------------------------------------------------------------|  play it twice (2 times)
B|--------------------------------------------------------------------------|
G|-----5---4---2---4-4---5---4-------------------------------------------|
D|----------------------------------5---4---5---5-5-5-5h7---5--4--3--5|
A|--------------------------------------------------------------------------|
E|---------------------------------------------------------------------------|
    This may not sound right at first so i recomend to use the amazing slow downer to listen and  figure it out.



E|--------------------------------------------------------------------------|  play it twice (2 times)
B|-----5---4---2---4-4---5---4-------------------------------------------|
G|----------------------------------5---4---5---5-5-5-5h7---5--4--3--5|
D|--------------------------------------------------------------------------|
A|--------------------------------------------------------------------------|
E|---------------------------------------------------------------------------|
Comments