Him - In Love And Lonely Chords & Tabs

 

In Love And Lonely Chords & Tabs

Him Chords & Tabs

Version: 3 Type: Tab

In Love And Lonely Tab

HIM
In Love and Lonely
Tabbed by: Mensur (mensur16@msn.com)

I'm improving on the current tab. 100% sure on the into and solo, and the verse/main riff
is pretty simple. The other intro is tabbed incorrectly but the notes are correct... This
is easier to play, sounds better, and it is how the song goes.

Intro.
e|-------------------------------------------------------------|
B|-------------------------------------------------------------|
G|-------------------------------------------------------------|
D|-11--13-13-13-13---------------------------------------------|
A|-----------------11-13---------------------------------------|
E|-------------------------------------------------------------|

Verse. (Played by bass)
e|-------------------------------------------------------------|
B|-------------------------------------------------------------|
G|-------------------------------------------------------------|
D|---------------------------------"the-last-time.."-----------|
A|--4~---6~-----4~---6~-----4~-----------8--8-9-8---6~---------|
E|-----------4~----------4~------------------------------------| 
[ Tab from: http://www.guitartabs.cc/tabs/h/him/in_love_and_lonely_tab_ver_3.html ]
Main Riff/Chorus.
e|-------------------------------------------------------------|
B|-------------------------------------------------------------|
G|-------------------------------------------------------------|
D|-------------------------------------------------------------|
A|-4--6-6-6-6--------4--6-6-6-6--------------------------------|
E|------------4-6---------------4-6----------------------------|

Solo.
(2:03)
e|---------------|---------------------------------------------|
B|--14-15-17b(19)|-17p15p14---17-15-14-------15-14-(14)--------|
G|---------------|---------------------17-15-------------------|
D|---------------|---------------------------------------------|
A|---------------|---------------------------------------------|
E|---------------|---------------------------------------------|

e|-------------------------------------------------------------|
B|--17-15-14-------15-14---17-15-14-------15-14--15(15)--------|
G|-----------17-15------------------17-15----------------------|
D|-------------------------------------------------------------|
A|-------------------------------------------------------------|
E|-------------------------------------------------------------|
STRAINED alternate picking on the 16th fret. 6 times(x2)
e|-----------|--------------------|----------------------------|
B|--------14-|-16(x6)-15-16(x6)-15|--17-15-14-------14-(14)----|
G|--17-15----|--------------------|-----------17-15------------|
D|-----------|--------------------|----------------------------|
A|-----------|--------------------|----------------------------|
E|-----------|--------------------|----------------------------|
                                                     (2:23)

Played with fuzzy (octafuzz) and heavy distortion with high-mid on a distortion channel.
Have fun. Thank you and please rate.