Him - In Joy And Sorrow Chords & Tabs

 

In Joy And Sorrow Chords & Tabs

Him Chords & Tabs

Version: 3 Type: Tab 0 ratings
1 star 2 stars 3 stars 4 stars 5 stars
comments

In Joy And Sorrow Tab

E|--------------------------0----------------------------
B|--------3--------------------3---3------------1--------
G|----0-----0---0------0---------0---------2------2------
D|--2---2-----2------0---0--------------2----2------2----
A|3----------------2-----------------0----------------0--
E|-------------------------------------------------------
[ Tab from: http://www.guitartabs.cc/tabs/h/him/in_joy_and_sorrow_tab_ver_3.html ]
E|----------------------------------------------0--------
B|-0-------1------------------3-------------------3---3--
G|---2-------2-----------0------0---0------0--------0----
D|-----2---------------2---2------2------0---0-----------
A|-------0------0-2-3------------------2-----------------
E|-------------------------------------------------------

E|---------------------0--|
B|---------------------0--|
G|---------0-----------1--|
D|-----2-----2---------2--|
A|---2---2-----2-------2--|
E|-0-------------------0--|

I think verse is same as above.
chorus is something like this.  
|--0--|--0--|--3--|--1--|
|--1--|--1--|--3--|--1--|
|--2--|--0--|--0--|--2--|
|--2--|--2--|--0--|--3--|
|--0--|--3--|--2--|--3--|
|--------------3--|--1--|

Comments