Him - In Joy And Sorrow Chords & Tabs

 

In Joy And Sorrow Chords & Tabs

Him Chords & Tabs

Version: 1 Type: Tab 1 rating
1 star 2 stars 3 stars 4 stars 5 stars
comments

In Joy And Sorrow Tab

##################################################################################
# This file is the author's own work and represents their interpretation of the  #
# song. You may only use this file for private study, scholarship, or research.  #
##################################################################################

Artist : HIM
Song   : In Joy And Sorrow
Tabbed : Apostolos Koutsoulelos
Based  : on Alex Behrens' chords 



I have seen Alex Behrens' chord file and i just have added the the guitar riff
on the verses. Refrains are played with power chords:


Verse 1 (12-String Acoustic):

e|-------------------|----------0--------|-------------------|-------------------|
B|----------3--------|------3-----3---3--|----------1--------|--0-------1--------|
G|------0-----0---0--|----0---0-----0----|------2-----2---2--|----2---2---2------|
D|----2---2-----2----|-------------------|----2---2-----2----|------2------------|
A|--3----------------|-------------------|--0----------------|--------------0-2--|
E|-------------------|--3----------------|-------------------|-------------------|
            Oh          girl we are the     same                          We are 
[ Tab from: http://www.guitartabs.cc/tabs/h/him/in_joy_and_sorrow_tab.html ]
e|-------------------|----------0--------|-------------------|-------------------|
B|----------3--------|------3-----3---3--|----------1--------|--0-------1--------|
G|------0-----0---0--|----0---0-----0----|------2-----2---2--|----2---2---2------|
D|----2---2-----2----|-------------------|----2---2-----2----|------2------------|
A|--3----------------|-------------------|--0----------------|--------------0-2--|
E|-------------------|--3----------------|-------------------|-------------------|
    young and           lost and so         afraid                        ThereĀ“s no 

e|-------------------|----------0--------|----------1--------|-------------------|
B|----------3--------|------3-----3---3--|------3-----3---3--|----------1--------|
G|------0-----0---0--|----0---0-----0----|----2---2-----2----|------2-----2------|
D|----2---2-----2----|-------------------|--0----------------|----2---2----------|
A|--3----------------|-------------------|-------------------|--0-----------0-2--|
E|-------------------|--3----------------|-------------------|-------------------|
   cure for the         pain            No shelter from the    rain

e|-------------------|----------0--------|-------------------|-------------------|
B|----------3--------|------3-----3---3--|-------------------|-------------------|
G|------0-----0---0--|----0---0-----0----|--1-1-1-1-1-1-1-1--|--1-1-1-1-1-1-1-1--|
D|----2---2-----2----|-------------------|--2-2-2-2-2-2-2-2--|--2-2-2-2-2-2-2-2--|
A|--3----------------|-------------------|--2-2-2-2-2-2-2-2--|--2-2-2-2-2-2-2-2--|
E|-------------------|--3----------------|--0-0-0-0-0-0-0-0--|--0-0-0-0-0-0-0-0--|
    All our             prayers seem to     fail


Chorus (Distorted Guitar /w power chords)


Verse 2 (12-String Acoustic)


Chorus (Distorted Guitar /w power chords)


Interlude: Am      (aahhh...)


Chorus (Distorted Guitar /w power chords)




PS: Any corrections at akdruid@hotmail.com  - Enjoy :-)
Comments