Him - Heartache Every Moment Acoustic Chords & Tabs

 

Heartache Every Moment Acoustic Chords & Tabs

Him Chords & Tabs

Version: 2 Type: Chords 0 ratings
1 star 2 stars 3 stars 4 stars 5 stars
comments

Heartache Every Moment Acoustic Chords

   
ONCE YOU GET THE CHORDS MEMORIZED, ITS REALLY EASY. SO ENJOY


   C    D    Em   G  D(sus2)  C(add9)

|--0-|--2-|--0-|--3-|--0-|-----0-----|------------------------------|
|--1-|--3-|--0-|--3-|--3-|-----3-----|------------------------------|
|--0-|--2-|--0-|--0-|--2-|-----0-----|------------------------------|
|--2-|--0-|--2-|--0-|--0-|-----2-----|------------------------------|
|--3-|----|--2-|--2-|----|-----3-----|------------------------------|
|----|----|--0-|--3-|----|-----------|------------------------------|


INTRO   

     C       D         Em      C  D     Em      C  D     G  C   D   D(sus2)
|---------|--------|--------|--------|-------|---------|------|---|------|
|---------|--------|--------|--------|-------|---------|------|---|------|
|---------|--------|--------|--------|-------|---------|------|---|------|
|---------|--------|--------|--------|-------|---------|------|---|------|
|---------|--------|--------|--------|-------|---------|------|---|------|
|---------|--------|--------|--------|-------|---------|------|---|------|


VERSE:

   Em     C(add9)   Em      C(add9)   Em      C(add9)   D       D(sus2)
|-------|---------|-------|---------|-------|---------|-------|---------|
|-------|---------|-------|---------|-------|---------|-------|---------|
|-------|---------|-------|---------|-------|---------|-------|---------|
|-------|---------|-------|---------|-------|---------|-------|---------|
|-------|---------|-------|---------|-------|---------|-------|---------|
|-------|---------|-------|---------|-------|---------|-------|---------|



  Em     C(add9)   Em      C(add9)   Em      C(add9)   D    D(sus2)  Em D   
|-------|---------|-------|---------|------|---------|-----|--------------|
|-------|---------|-------|---------|------|---------|-----|--------------|
|-------|---------|-------|---------|------|---------|-----|--------------|
|-------|---------|-------|---------|------|---------|-----|--------------|
|-------|---------|-------|---------|------|---------|-----|--------------|
|-------|---------|-------|---------|------|---------|-----|--------------|



CHORUS:


    C       D       Em      C  D     Em      C  D     G  C   D   
|--------|-------|-------|--------|-------|---------|------|------|
|--------|-------|-------|--------|-------|---------|------|------|
|--------|-------|-------|--------|-------|---------|------|------|
|--------|-------|-------|--------|-------|---------|------|------|
|--------|-------|-------|--------|-------|---------|------|------|
|--------|-------|-------|--------|-------|---------|------|------|

 D(sus2) Em D
|-------------|
|-------------|
|-------------|
|-------------|
|-------------|
|-------------|



     C       D         Em      C  D     Em      C  D     G  C   D   D(sus2)
|---------|--------|--------|--------|-------|---------|------|----|------|
|---------|--------|--------|--------|-------|---------|------|----|------|
|---------|--------|--------|--------|-------|---------|------|----|------|
|---------|--------|--------|--------|-------|---------|------|----|------|
|---------|--------|--------|--------|-------|---------|------|----|------|
|---------|--------|--------|--------|-------|---------|------|----|------|


VERSE 2:   THIS IS PRETTY MUCH THE SAME, BUT YOU STRUM THE FIRST COUPLE OF CHORDS
THE FIRST TIME, THEN YOU KEEP YOUR FINGERS IN THE SAME POSITION AND PICK THE
NOTES SEPERATLEY.


  Em     C(add9)   Em      C(add9)   Em      C(add9)   D    D(sus2)  Em D   
|-------|---------|-------|---------|------|---------|-----|--------------|
|-------|---------|-------|---------|------|---------|-----|--------------|
|-------|---------|-------|---------|------|---------|-----|--------------|
|-------|---------|-------|---------|------|---------|-----|--------------|
|-------|---------|-------|---------|------|---------|-----|--------------|
|-------|---------|-------|---------|------|---------|-----|--------------|



CHORUS:

[ Tab from: http://www.guitartabs.cc/tabs/h/him/heartache_every_moment_acoustic_crd_ver_2.html ]
    C       D       Em      C  D     Em      C  D     G  C   D   
|--------|-------|-------|--------|-------|---------|------|------|
|--------|-------|-------|--------|-------|---------|------|------|
|--------|-------|-------|--------|-------|---------|------|------|
|--------|-------|-------|--------|-------|---------|------|------|
|--------|-------|-------|--------|-------|---------|------|------|
|--------|-------|-------|--------|-------|---------|------|------|

 D(sus2) Em D
|-------------|
|-------------|
|-------------|
|-------------|
|-------------|
|-------------|



     C       D         Em      C  D     Em      C  D     G  C   D   D(sus2)
|---------|--------|--------|--------|-------|---------|------|----|------|
|---------|--------|--------|--------|-------|---------|------|----|------|
|---------|--------|--------|--------|-------|---------|------|----|------|
|---------|--------|--------|--------|-------|---------|------|----|------|
|---------|--------|--------|--------|-------|---------|------|----|------|
|---------|--------|--------|--------|-------|---------|------|----|------|



INTERLUDE THING:

  G     D     Em   G      D     Em       G      D     Em     G   D   D(sus2)
|-----|-----|-----|------|-----|------|------|-----|------|-----|----|----|
|-----|-----|-----|------|-----|------|------|-----|------|-----|----|----|
|-----|-----|-----|------|-----|------|------|-----|------|-----|----|----|
|-----|-----|-----|------|-----|------|------|-----|------|-----|----|----|
|-----|-----|-----|------|-----|------|------|-----|------|-----|----|----|
|-----|-----|-----|------|-----|------|------|-----|------|-----|----|----|


INTERLUDE PART 2:

  C(add9)             D(sus2)
|--------|-0--0--0--|--------|-0-----0------0------------ -----|
|--------|-3--3--3--|--------|---3-----3------3----------------|
|--------|-0--0--0--|--------|----2-----2-------2--------------|
|--------|-2--2--2--|--------|-----0------0-------0------------|
|--------|----------|--------|---------------------------------|
|--------|----------|--------|---------------------------------|

(REPEAT THAT A COUPLE OF TIMES)



CHORUS:


    C       D       Em      C  D     Em      C  D     G  C   D   
|--------|-------|-------|--------|-------|---------|------|------|
|--------|-------|-------|--------|-------|---------|------|------|
|--------|-------|-------|--------|-------|---------|------|------|
|--------|-------|-------|--------|-------|---------|------|------|
|--------|-------|-------|--------|-------|---------|------|------|
|--------|-------|-------|--------|-------|---------|------|------|

 D(sus2) Em D
|-------------|
|-------------|
|-------------|
|-------------|
|-------------|
|-------------|



     C       D         Em      C  D     Em      C  D     G  C   D   D(sus2)
|---------|--------|--------|--------|-------|---------|------|----|------|
|---------|--------|--------|--------|-------|---------|------|----|------|
|---------|--------|--------|--------|-------|---------|------|----|------|
|---------|--------|--------|--------|-------|---------|------|----|------|
|---------|--------|--------|--------|-------|---------|------|----|------|
|---------|--------|--------|--------|-------|---------|------|----|------|



DO THAT A COUPLE OF MORE TIMES AND THEN YOUR DONE!




VERSE 1:

From lashes to ashes
And from lust to dust
In your sweetest torment
I'm lost
And no heaven can help us
Ready, willing and able
To lose it all
For a kiss so fatal
And so warm

CHORUS:

Oh it's heartache every moment
From the start till the end
It's heartache every moment
With you
Deeper into our heavenly suffering
Our fragile souls are falling
It's heartache every moment
Baby with you, oho

VERSE 2:

And we sense the danger
But don't wanna give up
Cause there's no smile of an angel
Without the wrath of god

CHORUS:

Oh it's heartache every moment
From the start till the end
It's heartache every moment
With you
Deeper into our heavenly suffering
Our fragile souls are falling
It's heartache every moment
Baby with you
My darling with you

INTERLUDE PART 2:

From lashes to ashes
And from lust to dust
In your sweetest torment
I am lost
And we sense the danger
But don't wanna give up

CHORUS:

Oh it's heartache every moment
From the start till the end
It's heartache every moment
With you
Deeper into our heavenly suffering
Our fragile souls are falling
It's heartache every moment with you
That's right
Comments