Him - Gone With The Sin Chords & Tabs

 

Gone With The Sin Chords & Tabs

Him Chords & Tabs

Version: 4 Type: Tab 0 ratings
1 star 2 stars 3 stars 4 stars 5 stars
comments

Gone With The Sin Tab

   
----------------------------------PLEASE NOTE------------------------------- 
This file is the author's own work and represents their interpretation of the
song. You may only use this file for private study, scholarship, or research.
-----------------------------------------------------------------------------

BAND: HIM
SONG: Gone with the sin
ALBUM: Razorblade Romance
TABBED BY: poison_girl-666@o2.pl


Guitar comes in with the drums:

      F
E|----1----------|
B|----1----------|
G|----2----------|
D|----3----------|
A|----3----------|
E|----1----------|

CHORUS:                                    
|-----------------|----------------|----------------|--------|--------|
|--------2h3------|---------5------|---------3------|-------7|--------|
|------4-----4----|-------6---6----|-------4---4----|-----7--|-------6|
|----4---------4--|-----7-------7--|-----5-------5--|---7----|-----7--|
|--2-------------2|---7-----------7|---5-----------5|-5------|---7----|
|-----------------|-5--------------|-3--------------|--------|-5------| x3

|----------------|----------------|-3-----|
|-------2h3------|---------5------|-3-----|
|-----4-----4----|-------6---6----|-4-----|
|---4---------4--|-----7-------7--|-5-----|
|-2-------------2|---7-----------7|-5-----|
|----------------|-5--------------|-3-----|

Guitar doesn't play in verse
[ Tab from: http://www.guitartabs.cc/tabs/h/him/gone_with_the_sin_tab_ver_4.html ]
SOLO:
|---------------------------------|
|----8-6-----------6--------------|
|-5~-----8-7---7-8---8-7-5-3-5----|
|------------8-----------------5--|
|---------------------------------|
|---------------------------------|

|------------------------------------------|
|----8-6---6-----6-8-6---------------------|
|-5~-----8---7-8-------8-7-5-3-------------|
|------------------------------6-5-3-------|
|------------------------------------6-5~--|
|------------------------------------------|

|-------------------------------------------------------|
|-------------------------------------------------------|
|-------------------------------------------------------|
|-------------------------------------------------------|
|-5--7-8-7--8-10-12-10-8-7-5-3-2-1-------3-5-6-5---56~--|
|----------------------------------4-2-1---------6------|

In the solo there are two guitars: 
first plays solo and second plays chorus

FINAL CHORUS:
|----------------|----------------|----------------|--------|--------|
|-------4h5------|---------7------|---------5------|-------9|--------|
|-----6-----6----|-------8---8----|-------6---6----|-----9--|-------8|
|---6---------6--|-----9-------9--|-----7-------7--|---9----|-----9--|
|-4-------------4|---9-----------9|---7-----------7|-7------|---9----|
|----------------|-7--------------|-5--------------|--------|-7------| x3

|----------------|----------------|-5-----|
|-------4h5------|---------7------|-5-----|
|-----6-----6----|-------8---8----|-6-----|
|---6---------6--|-----9-------9--|-7-----|
|-4-------------4|---9-----------9|-7-----|
|----------------|-7--------------|-5-----|



Any questions/corrections? 
Please send me an email at my address: poison_girl-666@o2.pl
Take care... :)
Comments