Him - Gone With The Sin Solo Chords & Tabs

 

Gone With The Sin Solo Chords & Tabs

Him Chords & Tabs

Version: 1 Type: Tab 0 ratings
1 star 2 stars 3 stars 4 stars 5 stars
comments

Gone With The Sin Solo Tab

   
##################################################################################
# This file is the author's own work and represents their interpretation of the  #
# song. You may only use this file for private study, scholarship, or research.  #
##################################################################################

HIM 
Gone With The Sin
(so many incorrect versions around, here is a correct version! aah thankyou :D)



SOLO
(the solo is played on a synthersiser and the original is far too low for the
guitar, so here is a tuned up version i worked out)

-----5-12-10-8-7-8-10-8-7-5-3-5-0--------------------------
-----------------------------------------------------------
-----------------------------------------------------------
-----------------------------------------------------------
-----------------------------------------------------------
-----------------------------------------------------------
[ Tab from: http://www.guitartabs.cc/tabs/h/him/gone_with_the_sin_solo_tab.html ]
-----5-12-10-8-10-7-8-10-12-10-8-7-5-3-1-0-----------------
-------------------------------------------3-1-0-----------
-------------------------------------------------2---------
-----------------------------------------------------------
-----------------------------------------------------------
-----------------------------------------------------------

------------------0----------------------------------------
-----0-1-0----1-3---3-1-0------------------0-1-0---0-1-----
--------------------------2-0-----------2--------0---------
------------------------------3-2-0------------------------
------------------------------------3-2--------------------
-----------------------------------------------------------


CHORUS
Bm        A              G             D
Ooooooooooh, my baby how beautiful you are
Bm        A             G               D
Ooooooooooh, my darling completely torn apart
Bm                   A                G             D
You're gone with the sin my baby, and beautiful you are
Bm                   A               G.....
You're gone with the sin my darling



And here it is! Its pretty easy to play..and by far one the best Him songs around.
fireflower_blaze@hotmail.com
Comments