Him - Gone With The Sin Live Chords & Tabs

 

Gone With The Sin Live Chords & Tabs

Him Chords & Tabs

Version: 1 Type: Tab 0 ratings
1 star 2 stars 3 stars 4 stars 5 stars
comments

Gone With The Sin Live Tab

   
##################################################################################
# This file is the author's own work and represents their interpretation of the  #
# song. You may only use this file for private study, scholarship, or research.  #
##################################################################################

HIM
Gone With the Sin - Live@Rock Im Park Festvial (1-3.6.2001)

INTRO:
Guitar and Keyboard
--------------------------------
----9-7-----------7-------------
-6~-----9-8---8-9--9-8--6\4-6---
------------9-----------------6~
--------------------------------
--------------------------------
[ Tab from: http://www.guitartabs.cc/tabs/h/him/gone_with_the_sin_live_tab.html ]
-------------------------------------------------
----9-7---7------7--9-7--------------------------
-6~-----9----8-9--------9-8-6-4------------------
--------------------------------7-6-4------------
---------------------------------------7-6-4-x\\-
---------------------------------------------x\\-


Verse:    

   Am   G    Am   G
e--5----3----5----3----
H--5----3----5----3----
G--5----4----5----4----
D--7----5----7----5----
A--7----5----7----5----
E--5----3----5----3----

Refrain 1: 
(4 times, last time leave out the last G)

   Am   G    F    C    G  
e--5----3----1----3----3---
H--5----3----1----5----3---
G--5----4----2----5----4---
D--7----5----3----5----5---
A--7----5----3----3----5---
E--5----3----1---------3---
Comments