Him - Gone With A Sin Chords & Tabs

 

Gone With A Sin Chords & Tabs

Him Chords & Tabs

Version: 1 Type: Tab 1 rating
1 star 2 stars 3 stars 4 stars 5 stars
comments

Gone With A Sin Tab

   
Band: Him
Title: Gone With A Sin
Album: Razorblade Romance

Transcribed by Christian Potthoff
For comments or questions: noodles1@gmx.de

Verse:    

   Am   G    Am   G
e--5----3----5----3----
H--5----3----5----3----
G--5----4----5----4----
D--7----5----7----5----
A--7----5----7----5----
E--5----3----5----3----

Refrain 1: 
(4 times, last time leave out the last G)

   Am   G    F    C    G  
e--5----3----1----3----3---
H--5----3----1----5----3---
G--5----4----2----5----4---
D--7----5----3----5----5---
A--7----5----3----3----5---
E--5----3----1---------3---

Solo:
e-------------------------------------------------------------------
H-----17-15----------------15--------------------------17-15----15--
G--14-------17-16----16-17----17-16-14-12-14--------14-------17-----
D-----------------17-------------------------14--14-----------------
A-------------------------------------------------------------------
E-------------------------------------------------------------------
[ Tab from: http://www.guitartabs.cc/tabs/h/him/gone_with_a_sin_tab.html ]
e-------------------------------------------------------------------
H---------------17-15-----------------------------------------------
G--16-17-19-19--------17-16-14-12-----------------------------------
D----------------------------------15-14-12-------------------------
A-------------------------------------------15-14-12--12-14-15-14---
E-------------------------------------------------------------------

e-------------------------------------------------------------------
H-------------------------------------------------------------------
G-------------------------------------------------------------------
D-----------14-12---------------------------------------------------
A--14-15-17-------15-14-12-------------------12-14-15-14----14-15-15
E--------------------------15-13-12-10--8--7-------------15---------

Refrain 2:
(4 times, last time leave out the last A)
   Bm   A    G    D    A
e--7----5----3----5----5---
H--7----5----3----7----5---
G--7----6----4----7----6---
D--9----7----5----7----7---
A--9----7----5----5----7---
E--7----5----3---------5---
Comments