Him - Funeral Of Hearts Chords & Tabs

 

Funeral Of Hearts Chords & Tabs

Him Chords & Tabs

Version: 5 Type: Tab 0 ratings
1 star 2 stars 3 stars 4 stars 5 stars
comments

Funeral Of Hearts Tab

   
Tabbed by: Hiram Joel Ramos Santiago a.k.a. lestat281004
Tuning: Normal eBGDAE

guitar 1: acoustic
guitar 2: electric

Intro: 2x
guitar 1 
e[-2---4---2---0-------------------------------------------------------]
B[-2---5---3---2---0---------------------------------------------------]
G[-2---6---2---2---1---------------------------------------------------]
D[-4---6---0---2---2---------------------------------------------------] 
A[-4---4-------0---2---------------------------------------------------]
E[-2---4-----------0---------------------------------------------------]

guitar 2(clean)
e[---14--14--14--14-12--12--12--12-17--17--17--17-19--19-19-19-17-16---]
B[---14--14--14--14-12--12--12--12-17--17--17--17-17--17-17-17-17-16---]
G[---------------------------------------------------------------------]
D[---------------------------------------------------------------------]


Chorus: 2x
Both 1,2
B[-------------------------------------------------------------------------]
G[--------------------------------------------------------7-7-7-7----------]
D[--4-4-4-4--4-4-4-4--2-2-2-2--2-2-2-2--7-7-7-7--7-7-7-7--7-7-7-7--7-7-6-6-]
A[--4-4-4-4--4-4-4-4--2-2-2-2--2-2-2-2--7-7-7-7-7-7-7-7--5-5-5-5--7-7-6-6-]
E[--2-2-2-2--2-2-2-2--0-0-0-0--0-0-0-0--5-5-5-5--5-5-5-5-----------5-5-4-4-]

After the chorus:
guitar 2
G[----------------------------------------------------------------------]
D[-4-/-12---------------------------------------------------------------]
A[-4-/-12---------------------------------------------------------------]
E[-2-/-10---------------------------------------------------------------]


Verse:
Both 1,2                                             
e[--------------------------------------------------------][------------]
B[--------------------------------------------------------][------------]
G[--------------------------------------------------------][------------]
D[---------------2-8x---4-8x------------------2-8x---4-4x-][------2-4---]
A[-4-8x---2-8x---0------2-------4-8x---2-8x---0------2----][--2-4-------]
E[-2------0---------------------2------0------------------][------------]
PM .      .      .      .       .      .      .      .   

B[------------------------------------------------------------------------]
G[------------------------------------------------------------------------]
D[---------------2-8x---4-8x-----------------7----------------------------]
A[-4-8x---2-8x---0------2------4-8x---2-8x---7---[scratch string with pick]
E[-2------0--------------------2------0------5----------------------------]
PM .      .      .      .      .      .      
After the verse:
G[------------------------------------------------------------------------]
D[-9-9---11-11------------------------------------------------------------]
A[-9-9---11-11------------------------------------------------------------]
E[-7-7---09-09------------------------------------------------------------]
  

Chorus: 4x
Both 1,2
B[-------------------------------------------------------------------------]
G[--------------------------------------------------------7-7-7-7----------]
D[--4-4-4-4--4-4-4-4--2-2-2-2--2-2-2-2--7-7-7-7--7-7-7-7--7-7-7-7--7-7-6-6-]
A[--4-4-4-4--4-4-4-4--2-2-2-2--2-2-2-2--7-7-7-7-7-7-7-7--5-5-5-5--7-7-6-6-]
E[--2-2-2-2--2-2-2-2--0-0-0-0--0-0-0-0--5-5-5-5--5-5-5-5-----------5-5-4-4-]

After the chorus:
guitar 2
G[----------------------------------------------------------------------]
D[-4-/-12---------------------------------------------------------------]
A[-4-/-12---------------------------------------------------------------]
E[-2-/-10---------------------------------------------------------------]


Verse:
Both 1,2                                             
e[--------------------------------------------------------][------------]
B[--------------------------------------------------------][------------]
G[--------------------------------------------------------][------------]
D[---------------2-8x---4-8x------------------2-8x---4-4x-][------2-4---]
A[-4-8x---2-8x---0------2-------4-8x---2-8x---0------2----][--2-4-------]
E[-2------0---------------------2------0------------------][------------]
PM .      .      .      .       .      .      .      .   
[ Tab from: http://www.guitartabs.cc/tabs/h/him/funeral_of_hearts_tab_ver_5.html ]
B[------------------------------------------------------------------------]
G[------------------------------------------------------------------------]
D[---------------2-8x---4-8x-----------------7---[scratch string with pick]
A[-4-8x---2-8x---0------2------4-8x---2-8x---7----------------------------]
E[-2------0--------------------2------0------5----------------------------]
PM .      .      .      .      .      .      

After the verse:
G[------------------------------------------------------------------------]
D[-9-9---11-11------------------------------------------------------------]
A[-9-9---11-11------------------------------------------------------------]
E[-7-7---09-09------------------------------------------------------------]
  

Solo: 2x
guitar 2

e[------------------------][----------------------------]
B[------------------------][----------------------------]
G[------------------------][----------------------------]
D[-7-6-4---4-6-6-7---9-11-][-7-6-7---4-6-6-7------------] 
A[-------7---------7------][-------7----------7/4-------]
E[------------------------][----------------------------]

While guitar 2 plays the solo guitar 1 plays this: 4x

B[-------------------------------------------------------------------------]
G[--------------------------------------------------------7-7-7-7----------]
D[--4-4-4-4--4-4-4-4--2-2-2-2--2-2-2-2--7-7-7-7--7-7-7-7--7-7-7-7--7-7-6-6-]
A[--4-4-4-4--4-4-4-4--2-2-2-2--2-2-2-2--7-7-7-7-7-7-7-7--5-5-5-5--7-7-6-6-]
E[--2-2-2-2--2-2-2-2--0-0-0-0--0-0-0-0--5-5-5-5--5-5-5-5-----------5-5-4-4-]


After the solo:
Both 1,2

D[-4--2------------------4--2-----------------7------------------------]
A[-4--2--6--7--9--7--6---4--2--6--7--9-11--9--7-----[scratch the string]
E[-2--0--4--5--7--5--4---2--0--4--5--7--9--7--5------------------------]
                                                   
e[--------------------------------------------------------------------]
B[--------------------------------------------------------------------]
G[--------------------------------------------------------------------]
D[-9-9--11-11--4------------------------------------------------------]
A[-9-9--11-11-4---------[Start palm muted and slow take off your hand]
E[-7-7--09-09--2------------------------------------------------------]


[Drums brake]

Final Chorus:
Both 1,2

B[-------------------------------------------------------------------------]
G[--------9-----------------------------------------9----------------------]
D[-9------9-4x---9------8------6------4------9------9-4x---9------8--------]
A[-9-8x---7------9-2x---8-2x---6-8x---4-8x---9-8x---7------9-2x---8-2x-----]
E[-7-------------7------6------4------2------7-------------7------6--------]

B[-------------------------------------------------------------------------]
G[---------------------9-----------------------------------------9---------]
D[6------4------9------9-4x---9------8------6------4------9------9-4x--9---]
A[6-8x---4-8x---9-8x---7------9-2x---8-2x---6-8x---4-8x---9-8x---7-----9-2x]
E[4------2------7-------------7------6------4------2------7------------7---]

B[-----]
G[-----]
D[-8---]
A[-8-2x]
E[-6---]

Outro: 2x
guitar 1
e[--4---6---0---2---2------------------------------------------------]
B[--4---7---0---4---2------------------------------------------------]
G[--4---8---1---4---3------------------------------------------------]
D[--6---8---2---4---4------------------------------------------------] 
A[--6---6---2---2---4------------------------------------------------]
E[--4---6---0---2---2------------------------------------------------]


The Funeral Of Hearts lyrics

Love's the funeral of hearts
And an ode for cruelty
When angels cry blood
On flowers of evil in bloom

The funeral of hearts
And a plea for mercy
When love is a gun
Separating me from you

She was the sun shining upon
The tomb of your hopes and dreams so frail
He was the moon painting you
With its glow so vulnerable and pale

Love's the funeral of hearts
And an ode for cruelty
When angels cry blood
On flowers of evil in bloom

The funeral of hearts
And a plea for mercy
When love is a gun
Separating me from you

She was the wind, carrying in
All the troubles and fears you've for years tried to forget
He was the fire, restless and wild
And you were like a moth to that flame

The heretic seal beyond divine
A prayer to a god who's deaf and blind
The last rites for souls on fire
Three little words and a question: why?

Love's the funeral of hearts
And an ode for cruelty
When angels cry blood
On flowers of evil in bloom

The funeral of hearts
And a plea for mercy
When love is a gun
Separating me from you
        

Comments