Him - Funeral Of Hearts Chords & Tabs

 

Him Chords & Tabs

Version: 1 Type: Tab 0 ratings
1 star 2 stars 3 stars 4 stars 5 stars
comments

Funeral Of Hearts Tab

   
##################################################################################
# This file is the author's own work and represents their interpretation of the  #
# song. You may only use this file for private study, scholarship, or research.  #
##################################################################################

This hear version is the bomb the best ever :D trust me it is 100% correct

HIM
LOVE METAL
THE FUNERAL OF HEARTS

By: VerĂ³nica Romero (sculder_tn1@hotmail.com)

INTRO

Guitar 1 (Acoustic)

F#m 244222
C#m X46654
D   X57775
A   577655
E   X79997

          Guitar 2 
D Tune (DADGBe)

The  funeral    of    hearts  and  a  plea    for     mer_________cy
     -----------------------------------------------------------------
     -----------------------------------------------------------------
     -----------------6-6-6-6-6-6-6-6---------------------------------
     -4-4-4-4-4-4-4-4-6-6-6-6-6-6-6-6-0-0-0-0-0-0-0-0-7-7-7-7-2-2-2-2-
     -4-4-4-4-4-4-4-4-4-4-4-4-4-4-4-4-0-0-0-0-0-0-0-0-7-7-7-7-2-2-2-2-
     -4-4-4-4-4-4-4-4-----------------0-0-0-0-0-0-0-0-7-7-7-7-2-2-2-2-

When love   is    a   gun      sepa___rating   me   from      you
     -----------------------------------------------------------------
     -----------------------------------------------------------------
     -----------------6-6-6-6-6-6-6-6---------------------------------
     -4-4-4-4-4-4-4-4-6-6-6-6-6-6-6-6-0-0-0-0-0-0-0-0-7-7-7-7-2-2-2-2-
     -4-4-4-4-4-4-4-4-4-4-4-4-4-4-4-4-0-0-0-0-0-0-0-0-7-7-7-7-2-2-2-2-
     -4-4-4-4-4-4-4-4-----------------0-0-0-0-0-0-0-0-7-7-7-7-2-2-2-2-

     ---------
     ---------
     ---------
     -4-------
     -4-------
     -4-4/-12-

VERSOS


Guitar 1 (Acoustic)
Use the following chords

F#m 244222
E   022100
A   002220
D   X00323



F#m         E           A
--------------------------
     D         F#m       E       F#m       D
--------------------------------------------
F#m       E          A               D
--------------------------------------------
 F#m     E          D   E
-------------------------

Guitar 2


-----------------------------------------------------------------
-----------------------------------------------------------------
-------------------------------------------------7-7-7-7-7-7-7-7-
-4-4-4-4-4-4-4-4-2-2-2-2-2-2-2-2-7-7-7-7-7-7-7-7-7-7-7-7-7-7-7-7-
-4-4-4-4-4-4-4-4-2-2-2-2-2-2-2-2-7-7-7-7-7-7-7-7-5-5-5-5-5-5-5-5-
-4-4-4-4-4-4-4-4-2-2-2-2-2-2-2-2-7-7-7-7-7-7-7-7-----------------

   
-----------------------------------------------------------------
-----------------------------------------------------------------
-----------------------------------------------------------------
-4-4-4-4-4-4-4-4-2-2-2-2-2-2-2-2-4-4-4-4-4-4-4-4-4-4-4-4-----2-4-
-4-4-4-4-4-4-4-4-2-2-2-2-2-2-2-2-4-4-4-4-4-4-4-4-4-4-4-4---4-----
-4-4-4-4-4-4-4-4-2-2-2-2-2-2-2-2-4-4-4-4-4-4-4-4-4-4-4-4-4-------


-----------------------------------------------------------------
-----------------------------------------------------------------
-------------------------------------------------7-7-7-7-7-7-7-7-
-4-4-4-4-4-4-4-4-2-2-2-2-2-2-2-2-7-7-7-7-7-7-7-7-7-7-7-7-7-7-7-7-
-4-4-4-4-4-4-4-4-2-2-2-2-2-2-2-2-7-7-7-7-7-7-7-7-5-5-5-5-5-5-5-5-
-4-4-4-4-4-4-4-4-2-2-2-2-2-2-2-2-7-7-7-7-7-7-7-7-----------------

 
------------------------------------------------
------------------------------------------------
--------------------------------------4-4---6-6-
-4-4-4-4-4-4-4-4-2-2-2-2-2-2-2-2-0----4-4---6-6-
-4-4-4-4-4-4-4-4-2-2-2-2-2-2-2-2-0----2-2---4-4-
-4-4-4-4-4-4-4-4-2-2-2-2-2-2-2-2-0--------------


CHORUS


     -----------------------------------------------------------------
     -----------------------------------------------------------------
     -----------------6-6-6-6-6-6-6-6---------------------------------
     -4-4-4-4-4-4-4-4-6-6-6-6-6-6-6-6-0-0-0-0-0-0-0-0-7-7-7-7-7-2-2-2-
     -4-4-4-4-4-4-4-4-4-4-4-4-4-4-4-4-0-0-0-0-0-0-0-0-7-7-7-7-2-2-2-2-
     -4-4-4-4-4-4-4-4-----------------0-0-0-0-0-0-0-0-7-7-7-7-2-2-2-2-



     -----------------------------------------------------------------
     -----------------------------------------------------------------
     -----------------6-6-6-6-6-6-6-6---------------------------------
     -4-4-4-4-4-4-4-4-6-6-6-6-6-6-6-6-0-0-0-0-0-0-0-0-7-7-7-7-7-2-2-2-
     -4-4-4-4-4-4-4-4-4-4-4-4-4-4-4-4-0-0-0-0-0-0-0-0-7-7-7-7-2-2-2-2-
     -4-4-4-4-4-4-4-4-----------------0-0-0-0-0-0-0-0-7-7-7-7-2-2-2-2-


     -----------------------------------------------------------------
     -----------------------------------------------------------------
     -----------------6-6-6-6-6-6-6-6---------------------------------
     -4-4-4-4-4-4-4-4-6-6-6-6-6-6-6-6-0-0-0-0-0-0-0-0-7-7-7-7-7-2-2-2-
     -4-4-4-4-4-4-4-4-4-4-4-4-4-4-4-4-0-0-0-0-0-0-0-0-7-7-7-7-2-2-2-2-
     -4-4-4-4-4-4-4-4-----------------0-0-0-0-0-0-0-0-7-7-7-7-2-2-2-2


     -----------------------------------------------------------------
     -----------------------------------------------------------------
     -----------------6-6-6-6-6-6-6-6---------------------------------
     -4-4-4-4-4-4-4-4-6-6-6-6-6-6-6-6-0-0-0-0-0-0-0-0-7-7-7-7-7-2-2-2-
     -4-4-4-4-4-4-4-4-4-4-4-4-4-4-4-4-0-0-0-0-0-0-0-0-7-7-7-7-2-2-2-2-
     -4-4-4-4-4-4-4-4-----------------0-0-0-0-0-0-0-0-7-7-7-7-2-2-2-2

     ---------
     ---------
     ---------
     -4-------
     -4-------
     -4-4/-12-          

Guitar 1 (Acoustic)
[ Tab from: http://www.guitartabs.cc/tabs/h/him/funeral_of_hearts_tab.html ]
F#m        E           A
------------------------
          D         F#m          E                F#m       D
-------------------------------------------------------------
F#m       E              A
--------------------------
     D     F#m       E         D       E    
----------------------------------------

Guitar 2

 
-----------------------------------------------------------------
-----------------------------------------------------------------
-------------------------------------------------7-7-7-7-7-7-7-7-
-4-4-4-4-4-4-4-4-2-2-2-2-2-2-2-2-7-7-7-7-7-7-7-7-7-7-7-7-7-7-7-7-
-4-4-4-4-4-4-4-4-2-2-2-2-2-2-2-2-7-7-7-7-7-7-7-7-5-5-5-5-5-5-5-5-
-4-4-4-4-4-4-4-4-2-2-2-2-2-2-2-2-7-7-7-7-7-7-7-7-----------------

 
-----------------------------------------------------------------
-----------------------------------------------------------------
-----------------------------------------------------------------
-4-4-4-4-4-4-4-4-2-2-2-2-2-2-2-2-4-4-4-4-4-4-4-4-4-4-4-4-----2-4-
-4-4-4-4-4-4-4-4-2-2-2-2-2-2-2-2-4-4-4-4-4-4-4-4-4-4-4-4---4-----
-4-4-4-4-4-4-4-4-2-2-2-2-2-2-2-2-4-4-4-4-4-4-4-4-4-4-4-4-4-------

 
-----------------------------------------------------------------
-----------------------------------------------------------------
-------------------------------------------------7-7-7-7-7-7-7-7-
-4-4-4-4-4-4-4-4-2-2-2-2-2-2-2-2-7-7-7-7-7-7-7-7-7-7-7-7-7-7-7-7-
-4-4-4-4-4-4-4-4-2-2-2-2-2-2-2-2-7-7-7-7-7-7-7-7-5-5-5-5-5-5-5-5-
-4-4-4-4-4-4-4-4-2-2-2-2-2-2-2-2-7-7-7-7-7-7-7-7-----------------

 
------------------------------------------------
------------------------------------------------
--------------------------------------4-4---6-6-
-4-4-4-4-4-4-4-4-2-2-2-2-2-2-2-2-0----4-4---6-6-
-4-4-4-4-4-4-4-4-2-2-2-2-2-2-2-2-0----2-2---4-4-
-4-4-4-4-4-4-4-4-2-2-2-2-2-2-2-2-0--------------

SOLO

Guitar 1

---------------------------|-----------------------
---------------------------|-----------------------
---------------------4-4/6-|-----------------------
-7-6-4-2-4-6-6-6/7---------|-7-6-4-2-4-6-6-6/7-----
-------------------7-------|-------------------74-
---------------------------|-----------------------

---------------------------|-----------------------
---------------------------|-----------------------
---------------------4-4/6-|-----------------------
-7-6-4-2-4-6-6-6/7---------|-7-6-7---7-6-6-6/7-----
-------------------7-------|-------7-----------74-
---------------------------|-----------------------

Guitar 2

-----------------------7-7/9-|--------------------------
-10-9-7-5-7-9-9-9/10---------|-10-9-10---7-9-9-9/10-----
---------------------9-------|---------9------------96-
-----------------------------|--------------------------
-----------------------------|--------------------------
-----------------------------|--------------------------

-----------------------7-7/9-|---------------------------
-10-9-7-5-7-9-9-9/10---------|-10-9-10---10-9-9-9/10-----
---------------------9-------|---------9-------------96-
-----------------------------|---------------------------
-----------------------------|---------------------------
-----------------------------|---------------------------

Guitar 1 (Acoustic)

D            E            C#m
-----------------------------
               A         E         D
-------------------------------------
          E               C#m
-------------------------------------
              A           E        D
-------------------------------------

Guitar 2

-------------------------|---------------------------
-------------------------|---------------------------
-------------------------|---------------------------
-------------------------|-------------------------0-
-------------------------|-------------------------0-
-0---2---3---4-6-4---2---|-0---2---3---4-6-7---6---0-

-------------------------------------
-------------------------------------
-4-4---6-6---------------------------
-4-4---6-6---4-4-4-4-4-4-4-4-4-4-4-4-
-2-2---4-4---4-4-4-4-4-4-4-4-4-4-4-4-
-------------4-4-4-4-4-4-4-4-4-4-4-4-
             ----P.M----
CHORUS

 
                                     ---------------------------------
                                     ---------------------------------
                                     -----------------4-4-4-4---------
                                     -2-2-2-2-2-2-2-2-4-4-4-4-4-4-4-4-
                                     -2-2-2-2-2-2-2-2-2-2-2-2-4-4-4-4-
                                     -2-2-2-2-2-2-2-2---------4-4-4-4-


     -----------------------------------------------------------------
     -----------------------------------------------------------------
     -------------------------------------------------4-4-4-4---------
     -6-6-6-6-6-6-6-6-1-1-1-1-1-1-1-1-2-2-2-2-2-2-2-2-4-4-4-4-4-4-4-4-
     -6-6-6-6-6-6-6-6-1-1-1-1-1-1-1-1-2-2-2-2-2-2-2-2-2-2-2-2-4-4-4-4-
     -6-6-6-6-6-6-6-6-1-1-1-1-1-1-1-1-2-2-2-2-2-2-2-2---------4-4-4-4-


     -----------------------------------------------------------------
     -----------------------------------------------------------------
     -------------------------------------------------4-4-4-4---------
     -6-6-6-6-6-6-6-6-1-1-1-1-1-1-1-1-2-2-2-2-2-2-2-2-4-4-4-4-4-4-4-4-
     -6-6-6-6-6-6-6-6-1-1-1-1-1-1-1-1-2-2-2-2-2-2-2-2-2-2-2-2-4-4-4-4-
     -6-6-6-6-6-6-6-6-1-1-1-1-1-1-1-1-2-2-2-2-2-2-2-2---------4-4-4-4-


     -----------------------------------------------------------------
     -----------------------------------------------------------------
     -------------------------------------------------4-4-4-4---------
     -6-6-6-6-6-6-6-6-1-1-1-1-1-1-1-1-2-2-2-2-2-2-2-2-4-4-4-4-4-4-4-4-
     -6-6-6-6-6-6-6-6-1-1-1-1-1-1-1-1-2-2-2-2-2-2-2-2-2-2-2-2-4-4-4-4-
     -6-6-6-6-6-6-6-6-1-1-1-1-1-1-1-1-2-2-2-2-2-2-2-2---------4-4-4-4-

Guitar 1 (Acoustic)

G#m 466444
D#m x68876
E   x79997
B   799877
F#  x91111119

    G#m          D#m          E       B     F
------------------------------------------------
     G#m         D#m                E      B  F#
------------------------------------------------


--------------|
------------9-|
-------4----9-|
-----6---6--9-|
---6--------7-|
-4------------|

Comments