Him - Fortress Of Tears Chords & Tabs

 

Fortress Of Tears Chords & Tabs

Him Chords & Tabs

Version: 1 Type: Tab 0 ratings
1 star 2 stars 3 stars 4 stars 5 stars
comments

Fortress Of Tears Tab

HIM-fortress of tears
Marinos greece

start
e-------------------------]
b-2/3--2-2-2/0------------]
g-2/4--2-2-2/0------------]
d--------------5/4-2~-----] x2
a-------------------------]
E-------------------------]

riff1
g-------------------------------]
d--7/9--999--7-7-7/5--5/4/2-----]
a--7/9--999--7-7-7/5--5/4/2-----]
E--5/7--777--5-5-5/3--3/2/0-----]
[ Tab from: http://www.guitartabs.cc/tabs/h/him/fortress_of_tears_tab.html ]
riff2
g-------------------------------]
d--9/11--111111--9-9-9/7-7/6/4--]
a--9/11--111111--9-9-9/7-7/6/4--]
E--7/9---9-9-9---7-7-7/5-5/4/2--]

chorus:
 "this fortress of tears......fears  for youuuu
g--7--------------------------------------7------]
d--7-----------------9----------5---------7-7----]
a--5-----------------9----------5---------5-7----]x2
E--------------------7----------3-----------5----]

1st chorus
and then riff1

2nd chorus
and the riff 2

this is all for now...
song dedicated
Comments