Him - Drunk On Shadows Chords & Tabs

 

Drunk On Shadows Chords & Tabs

Him Chords & Tabs

Version: 1 Type: Tab 0 ratings
1 star 2 stars 3 stars 4 stars 5 stars
comments

Drunk On Shadows Tab

~HIM~
"Drunk on Shadows"
Darklight
Tabbed by: LDscholar
Email: ldscholar36@netscape.net
Tuning: Drop C# (can be done with normal tuning)

This may only be my 3rd tab, but know that I put a lot of time and 
effort into making these. I cherish the hours of concentration and revision
I put into ALL my tabs. I know... I need a life.
ENJOY!

. . . = Palm Muting
/ = Slide Up
\ = Slide Down
#* = Natural Harmonic
~ = Vibrato
(#) = Optional\Ghost Note

*METAL DISTORTION*

Intro
                                                     
E|------------------------------------|
B|------------------------------------|
G|------------------------------------|
D|-6--6--6--6--6--6---9-9-9-9-9-9---4-|
A|-4--4--4--4--4--4---7-7-7-7-7-7---6-|
C|(0)(0)(0)(0)(0)(0)------------------|

Verse Riff {x2}

   . . . .  . . .  . . .  . . . . . . .     {x2}
E|--------------------------------------|
B|--------------------------------------|
G|--------------------------------------|
D|-6----------6------6------6---6-------|
A|---7-6-4--4---4--4---4--4---4---7-6-4-|
C|--------------------------------------|

   . . . .  . . .  . . .  . . . . . . .     
E|--------------------------------------------------------|
B|--------------------------------------------------------|
G|----------------------------4-4-4-----------------------|
D|---6------6------6---6--------------------------6-------|
A|-4---4--4---4--4---4---6-7---------6-7-6--6-7-6---7-6-4-|
C|--------------------------------------------------------|

(on third time...)
   . . . .  . . .  . . . . .  . . .  . . . .  .     
E|----------------------------------------------|
B|----------------------------------------------|
G|----------------------------4-4-4-------------|
D|---6------6------6---6------------------------|
A|-4---4--4---4--4---4---6-7---------6-7-6--6-7-|
C|----------------------------------------------|

Pre-Chorus Riff

E|------------------------------------------------------|
B|------------------------------------------------------|
G|------------------------------------------------------|
D|-9--9--9-9\4--4-4--4---6--6--6--6--6--6---9-9-9-9-9-9-|
A|-7--7--7-7\2--2-2--2---4--4--4--4--4--4---7-7-7-7-7-7-|
C|----------------------(0)(0)(0)(0)(0)(0)--------------|

Chorus Riff 

E|------------------------------------^-----|
B|------------------------------------R-----|
G|-6-6-6-6-6-4-4-4--/8-8-8-8-8-4-4-4--E-----|
D|------------------------------------S-----|
A|------------------------------------T-----|
C|------------------------------------^-----|
[ Tab from: http://www.guitartabs.cc/tabs/h/him/drunk_on_shadows_tab.html ]
E|----------------------------------------7--5*-7-----7------7--|
B|------------------------------------/5------------4-----4-----|
G|-6-6-6-6-6-4-4-4--/8-8-8-8-8-4-4-4----------------------------|
D|--------------------------------------------------------------|
A|--------------------------------------------------------------|
C|--------------------------------------------------------------|

E|------------------------------------|
B|------------------------------------|
G|------------------------------------|
D|---------6--6--6--6---/9-9-9-9-9----|
A|---------4--4--4--4---/7-7-7-7-7-6~-|
C|-3/12\3-(0)(0)(0)(0)----------------|

E|-------------------------------|
B|-------------------------------|
G|-6-6-6-6-6-6---9-9-9-9-9-9---6-| <-
D|-6-6-6-6-6-6---9-9-9-9-9-9---6-| <-LET C#5 RING - CROSSFADE INTO VERSE
A|-4-4-4-4-4-4---7-7-7-7-7-7---4-| <-
C|-----------------------------0-|

Interlude

E|-----------------------------------------------------------|
B|-----------------------------------------------------------|
G|-----------------------------------------------------------|
D|-----------------------------------------------------------|
A|-----------------------------------------------------------|
C|-5-3-2-0---0-0-0--0-0-0--0-0-0--5-3-0--0-0-0--0-0-0--0-0-0-|

E|----------------------------------------------------------|
B|----------------------------------------------------------|
G|----------------------------------------------------------|
D|----------------------------------------------------------|
A|-----------------------------0-0-0------------------------|
C|-0-0-0--0-0-0--0-0-0---5-2-3--------2-3-2---2-3-2-5-3-2-0-|

E|-^---------------------------------------------------------|
B|-W---------------------------------------------------------|
G|-A---9----6----9----6--------------------------------------|
D|-I---9----6----9----6--------------------------------------|
A|-T---7----4----7----4--------------------------------------|
C|-^---------------------------------------------------------|

Outro 

E|---------------|
B|---------------|
G|---------------|
D|-2---2---2---2-|
A|-2---2---2---2-|
C|-0---0---0---0-|

(repeat until fade)
E|------------------------------------------------------|
B|------------------------------------------------------|
G|----------------------------/6--6--6-6--9--9-9--9-9-9-|
D|-9--9--9-9--4--4-4--4-4-4---/4--4--4-4--7--7-7--7-7-7-|
A|-9--9--9-9--4--4-4--4-4-4-----------------------------|
C|-7--7--7-7--2--2-2--2-2-2-----------------------------|


THAT'S IT!
I have to admit, this was not one of my better ones, but it's at least 90% accurate.
Comments