Him - Close To The Flame Chords & Tabs

 

Close To The Flame Chords & Tabs

Him Chords & Tabs

Version: 1 Type: Bass Tab 0 ratings
1 star 2 stars 3 stars 4 stars 5 stars
comments

Close To The Flame Bass Tab

Artist: Him
Song: Close to the flame
Album: Deep shadows and brilliant highlights
standard tunning


Main Riff (00:10) x1
C--------------------------------------------------------
D-------------------------------------------0--0-0--0-0--
A---------------2--2-2--2-0-2-3--3-3--3-2-3--------------
E-3--3-3--3-2-3------------------------------------------
[ Tab from: http://www.guitartabs.cc/tabs/h/him/close_to_the_flame_btab.html ]
Verse (00:21) x4
C----------------------------------------------------
D-2--2-2--2-0-2-0--0-0--0----------------------------
A--------------------------0--0-0--0-0-0-0--2--0-----
E-------------------------------------------------3--


Main Riff again (01:04) x2

Verse (01:26) x4

Main Riff (02:09) x2

Guitar solo (02:31)
C------------------------------------------
D----------------------------------0-------
A------------------2---2---0-3---3---------
E--3---3-2-3---2-3---------------------10/-


Main Riff (02:53) x4

    ...end...
Comments