Him - Close To The Flame Acoustic Chords & Tabs

 

Close To The Flame Acoustic Chords & Tabs

Him Chords & Tabs

Version: 1 Type: Tab 0 ratings
1 star 2 stars 3 stars 4 stars 5 stars
comments

Close To The Flame Acoustic Tab

   
HIM
"Close to the Flame" (Acoustic)

(Updated Solo)
I just got this cd yesterday and this song is the one that stood out for me. The other
tabs were correct but I thought I would post the picking part during the verse and so on.
I tried to line the lyrics up but I don't think I did a very good job. Please leave good
rating. Thanks! 

Intro:
(V)= smooth downstroke
note:chorus is same as intro

   Em              Bm              C              D   
e|-----------------2--2-2--2-2--------------------2--2-2--2-2-2-|
B|--0--0-0--0-0----3--3-3--3-3-----1--1-1--1-1----3--3-3--3-3-3-|
G|--0--0-0--0-0-0--4--4-4--4-4--0--0--0-0--0-0-0--2--2-2--2-2-2-|
D|--2--2-2--2-2-0--4--4-4--4-4--0--2--2-2--2-2-0--0--0-0--0-0-0-|
A|--2--2-2--2-2-0--2--2-2--2-2--0--3--3-3--3-3-0-----0----------|
E|--0--0-0--0-0-0---------------0--3--3-3--3-3-0----------------|
       V              V               V              V
[ Tab from: http://www.guitartabs.cc/tabs/h/him/close_to_the_flame_acoustic_tab.html ]
   Em                D                     Am
e|-----------------------------0-----------------------------------------------------|
B|--------------------------3-----3-----------------1-----------------1-----0--------|
G|-----------0-----------2-----------2-----------2-----2-----------2-----2-----2--2--|
D|--------2-----2-----0-----------------0-----2-----------2-----2--------------------|
A|--2--2-----------2-----------------------0-----------------0-----------------------|
E|--0--------------------------------------------------------------------------------|
1.             The kiss                the sweetest   
2.            The arms                 Safest
   Em                D                     Am
e|-----------------------------0-----------------------------------------------------|
B|--------------------------3-----3-----------------1-----------------1-----0--------|
G|-----------0-----------2-----------2-----------2-----2-----------2-----2-----2--2--|
D|--------2-----2-----0-----------------0-----2-----------2-----2--------------------|
A|--2--2-----------2-----------------------0-----------------0-----------------------|
E|--0--------------------------------------------------------------------------------|
1.             And touch          So warm
2.             And words          All good
   Em                D                    Am
e|-----------------------------0-----------------------------------------------------|
B|--------------------------3-----3-----------------1-----------------1-----0--------|
G|-----------0-----------2-----------2-----------2-----2-----------2-----2-----2--2--|
D|--------2-----2-----0-----------------0-----2-----------2-----2--------------------|
A|--2--2-----------2-----------------------0-----------------0-----------------------|
E|--0--------------------------------------------------------------------------------|
1.         The smile          Kindest
2.         The faith          Deepest
   Em                D                     Am               Bm
e|-----------------------------0-----------------------------------------------------|
B|--------------------------3-----3-----------------1-----------------3--------------|
G|-----------0-----------2-----------2-----------2-----2-----------4-----4-4--4------|
D|--------2-----2-----0-----------------0-----2-----------2-----4--------4-4--4------|
A|--2--2-----------2-----------------------0-----------------2-----------2-2--2------|
E|--0--------------------------------------------------------------------2-2--2------|
1.           In this world     so cold      and        strong              So
2.           In this world     so cold      and        so cruel            So
   Em              Bm              C              D   
e|-----------------2--2-2--2-2--------------------2--2-2--2-2-2-|
B|--0--0-0--0-0----3--3-3--3-3-----1--1-1--1-1----3--3-3--3-3-3-|
G|--0--0-0--0-0-0--4--4-4--4-4--0--0--0-0--0-0-0--2--2-2--2-2-2-|
D|--2--2-2--2-2-0--4--4-4--4-4--0--2--2-2--2-2-0--0--0-0--0-0-0-|
A|--2--2-2--2-2-0--2--2-2--2-2--0--3--3-3--3-3-0-----0----------|
E|--0--0-0--0-0-0---------------0--3--3-3--3-3-0----------------|
    Close to the   flame             burning      Brightly  It won't 

   Em              Bm              C              D   
e|-----------------2--2-2--2-2--------------------2--2-2--2-2-2-|
B|--0--0-0--0-0----3--3-3--3-3-----1--1-1--1-1----3--3-3--3-3-3-|
G|--0--0-0--0-0-0--4--4-4--4-4--0--0--0-0--0-0-0--2--2-2--2-2-2-|
D|--2--2-2--2-2-0--4--4-4--4-4--0--2--2-2--2-2-0--0--0-0--0-0-0-|
A|--2--2-2--2-2-0--2--2-2--2-2--0--3--3-3--3-3-0-----0----------|
E|--0--0-0--0-0-0---------------0--3--3-3--3-3-0----------------|
    Fade    A  -  way          and leave  us  lonely



 (not perfect but works for me)
e|-------------------------------------------------------------------|
B|------------------------------------0------------------------------|
G|------------------------------------0------------------------------|
D|------------------------------------0------------------------------|
A|-5h7-------5h7-7-5-7-9---7-5-5-2--0-------5h7--7h9--9-9-9-9-9-9/2--|
E|-------------------------------------------------------------------|
   v         v   v v v v   v v v v  v v     v    v    v v v v v v



      Em              Bm             C              D   
e|-------------------2--2-2--2-2--------------------2--2-2--2-2-2-|
B|----0--0-0--0-0----3--3-3--3-3-----1--1-1--1-1----3--3-3--3-3-3-|
G|----0--0-0--0-0-0--4--4-4--4-4--0--0--0-0--0-0-0--2--2-2--2-2-2-|
D|----2--2-2--2-2-0--4--4-4--4-4--0--2--2-2--2-2-0--0--0-0--0-0-0-|
A|----2--2-2--2-2-0--2--2-2--2-2--0--3--3-3--3-3-0-----0----------|
E|----0--0-0--0-0-0---------------0--3--3-3--3-3-0----------------|
 So   Close to the   flame           burning        Brightly  It won't 

    Em             Bm              C              D   
e|-----------------2--2-2--2-2--------------------2--2-2--2-2-2-|
B|--0--0-0--0-0----3--3-3--3-3-----1--1-1--1-1----3--3-3--3-3-3-|
G|--0--0-0--0-0-0--4--4-4--4-4--0--0--0-0--0-0-0--2--2-2--2-2-2-|
D|--2--2-2--2-2-0--4--4-4--4-4--0--2--2-2--2-2-0--0--0-0--0-0-0-|
A|--2--2-2--2-2-0--2--2-2--2-2--0--3--3-3--3-3-0-----0----------|
E|--0--0-0--0-0-0---------------0--3--3-3--3-3-0----------------|
    Fade    A  -  way                leave us lonely
Comments