Him - Bury Me Deep Inside Your Heart Chords & Tabs

 

Bury Me Deep Inside Your Heart Chords & Tabs

Him Chords & Tabs

Version: 2 Type: Tab 0 ratings
1 star 2 stars 3 stars 4 stars 5 stars
comments

Bury Me Deep Inside Your Heart Tab

   
-------------------------------------------------------------------------------
		     Bury me deep inside your heart - HIM
-------------------------------------------------------------------------------
Tabbed by: Chuck Ciulla
Email: woodchuck924@aol.com

Tuning: (use 7 string) B E A D G B E
[ Tab from: http://www.guitartabs.cc/tabs/h/him/bury_me_deep_inside_your_heart_tab_ver_2.html ]
Intro:
Guitar 1 (throughout intro and chorus)
e|--------------------------------------------------------------|
b|--------------------------------------------------------------|
G|------------------------14-16----12-14----11-12----11-9-------|
D|--------------------------------------------------------------|
A|--------------------------------------------------------------|
E|--------------------------------------------------------------|
B|---0----------------------------------------------------------|
      (let ring)
Guitar 2 (played throughout intro and chorus as guitar one)
e|--------------------------------------------------------------|
b|--------------------------------------------------------------|
G|--------------------------------------------------------------|
D|------------------------------------------------------77-77-2-|
A|------------------------------------------------------77-77-2-|
E|------------------------------------------------------44/55-0-|
B|--------------------------------------------------------------|

Strum each chord to the rythm
e|-----------------------------------|
b|-----------------------------------|
G|-----------------------------------|
D|-----------------------------------|
A|----2--4--5--7--9--7---------------|
E|----2--4--5--7--9--7---------------|
B|----0--2--3--5--7--5---------------|


Verse
e|-----------------0---4-------------|
b|-------7---7----2---5--------------|
G|------7----5---2---6---------------|
D|------7----4---2---6---------------|
A|------5----5---0---4---------------|
E|-----------------------------------|
B|-----------------------------------|


Bridge (just a small little thing to play using octaves)
G|---11-13-14--13--------------------|
D|---x---x----x---x------------------|
A|---9--11--12--11-------------------|

Last Chorus after bridge
e|-----------------------------------|
b|-----------------------------------|
G|-----------------------------------|
D|-----------------------------------|
A|---2--4--5--7--9--11---------------|
E|---2--4--5--7--911----------------|
B|---0--2--3--5--7--9----------------|

I still should figure out the order and repost it for those who are unfamiliar but if 
know the song well enough you should know how many of each section to play. Have fun

| /  slide up
| \  slide down
| h  hammer-on
| p  pull-off
| ~  vibrato
| +  harmonic
| x  Mute note
Comments